PrimaNota.ru - самый крупный в мире бесплатный архив песенных текстов, аккордов, табулатур и нот


My Dying Bride - A Map Of All Our Failures - текст песни, таба, видео

Регистрация Запомнить меня
Войти через:  Facebook Google Twitter Vk Yandex Mail.ru

My Dying Bride - A Map Of All Our Failures - текст песни, таба, видео

Печатать
Просмотров: 121
Авторы музыки: My Dying Bride
Авторы текста: Aaron Stainthorpe
MY DYING BRIDE

A MAP OF ALL OUR FAILURES

C#-F#-B-E-G#-C#



TABBED BY andherembrace



---------------------------------------------------|
---------------------------------------------------|
---------------------------------------------------|
------------------7------------------5-7-8--7------|
-8--7-7----5-7-8----5------8--7-7----5-5-5----5----|
-5--5-5----5-5-5-----------5--5-5------------------|

---------------------------------------------------|
---------------------------------------------------|
---------------------------------------------------|
------------------7------------------5-7-8--7------|
-8--7-7----5-7-8----5------8--7-7----5-5-5----5----|
-5--5-5----5-5-5-----------5--5-5------------------|

---------------------------------------------------|
---------------------------------------------------|
---------------------------------------------------|
------------------7------------------5-7-8--7------|
-8--7-7----5-7-8----5------8--7-7----5-5-5----5----|
-5--5-5----5-5-5-----------5--5-5------------------|

-----------|
-----------|
-----------|
-----------|
-8--7-7----|
-5--5-5----|




0:59

L
--------------------------------------------|
--------------------------------------------|
--------------------------------------------|
--------------------------------------------|
--8----7----5----3----0----3-----------2----|
---------------------------------3----------|
R
--------------------------------------------|
--------------------------------------------|
--------------------------------------------|
--------------------------------------------|
--8----7----5----3----0----3-----------5----|
---------------------------------3----------|

L
--------------------------------------------|
--------------------------------------------|
--------------------------------------------|
--------------------------------------------|
--8----7----5----3----0----3----------------|
---------------------------------3----------|
R
--------------------------------------------|
--------------------------------------------|
--------------------------------------------|
--------------------------------------------|
--8----7----5----3----0----3----------------|
---------------------------------3----------|

L
--------------------------------------------|
--------------------------------------------|
--------------------------------------------|
--------------------------------------------|
--8----7----5----3----0----3-----------2----|
---------------------------------3----------|
R
--------------------------------------------|
--------------------------------------------|
--------------------------------------------|
--------------------------------------------|
--8----7----5----3----0----3-----------5----|
---------------------------------3----------|

L
--------------------------------------------|
--------------------------------------------|
--------------------------------------------|
--------------------------------------------|
--8----7----5----3----0----3-----5----------|
--------------------------------------------|
R
--------------------------------------------|
--------------------------------------------|
--------------------------------------------|
--------------------------------------------|
--8----7----5----3----0----7----8-----------|
--------------------------------------------|



1:36

---------------------------------------------------|
---------------------------------------------------|
---------------------------------------------------|
------------------7------------------5-7-8--7------|
-8--7-7----5-7-8----5------8--7-7----5-5-5----5----|
-5--5-5----5-5-5-----------5--5-5------------------|

---------------------------------------------------|
---------------------------------------------------|
---------------------------------------------------|
------------------7------------------5-7-8--7------|
-8--7-7----5-7-8----5------8--7-7----5-5-5----5----|
-5--5-5----5-5-5-----------5--5-5------------------|

-----------|
-----------|
-----------|
-----------|
-8--7-7----|
-5--5-5----|



2:16

L
--------------------------------------------|
--------------------------------------------|
--------------------------------------------|
--------------------------------------------|
--8----7----5----3----0----3-----------2----|
---------------------------------3----------|
R
--------------------------------------------|
--------------------------------------------|
--------------------------------------------|
--------------------------------------------|
--8----7----5----3----0----3-----------5----|
---------------------------------3----------|

L
--------------------------------------------|
--------------------------------------------|
--------------------------------------------|
--------------------------------------------|
--8----7----5----3----0----3----------------|
---------------------------------3----------|
R
--------------------------------------------|
--------------------------------------------|
--------------------------------------------|
--------------------------------------------|
--8----7----5----3----0----3----------------|
---------------------------------3----------|

L
--------------------------------------------|
--------------------------------------------|
--------------------------------------------|
--------------------------------------------|
--8----7----5----3----0----3-----------2----|
---------------------------------3----------|
R
--------------------------------------------|
--------------------------------------------|
--------------------------------------------|
--------------------------------------------|
--8----7----5----3----0----3-----------5----|
---------------------------------3----------|


L
--------------------------------------------|
--------------------------------------------|
--------------------------------------------|
--------------------------------------------|
--8----7----5----3----0----3-----5----------|
--------------------------------------------|
R
--------------------------------------------|
--------------------------------------------|
--------------------------------------------|
--------------------------------------------|
--8----7----5----3----0----7----8-----------|
--------------------------------------------|




2:54

L
----------------------------------------------------|
----------------------------------------------------|
----------------------------------------------------|
-------------7---5---3-----------------7---5---/8---|
----------------------------------------------------|
----------------------------------------------------|
R
----------------------------------------------------|
----------------------------------------------------|
----------------------------------------------------|
----------------------------------------------------|
-8---7---5---------------8---7-7--------------------|
----------------------------------5-----------------|


L
----------------------------------------------------|
----------------------------------------------------|
----------------------------------------------------|
-------------7---5---3-----------------7---5---/8---|
----------------------------------------------------|
----------------------------------------------------|
R
----------------------------------------------------|
----------------------------------------------------|
----------------------------------------------------|
----------------------------------------------------|
-8---7---5---------------8---7-7--------------------|
-----------------------------------5----------------|

L
----------------------------------------------------|
----------------------------------------------------|
----------------------------------------------------|
-------------7---5---3-----------------7---5--/8----|
----------------------------------------------------|
----------------------------------------------------|
R
----------------------------------------------------|
----------------------------------------------------|
----------------------------------------------------|
----------------------------------------------------|
-8---7---5---------------8---7-7--------------------|
-----------------------------------5----------------|

L
----------------------------------------------------|
----------------------------------------------------|
----------------------------------------------------|
-------------7---5---3-----------------7---5---/8---|
----------------------------------------------------|
----------------------------------------------------|
R
----------------------------------------------------|
----------------------------------------------------|
----------------------------------------------------|
----------------------------------------------------|
-8---7---5---------------8----7---------------------|
-----------------------------------5----------------|




3:34



-5-3---3------^--5-3---3------^--5-3---3------^--5-3---3------^--|
-----6---6-5-3-5-----6---6-5-3-5-----6---6-5-3-5-----6---6-5-3-5-|
-----------------------------------------------------------------|
-----------------------------------------------------------------|
-----------------------------------------------------------------|
-----------------------------------------------------------------|


-5-3---3------^--5-3---3------^--5-3---3------^--5-3---3------^--|
-----6---6-5-3-5-----6---6-5-3-5-----6---6-5-3-5-----6---6-5-3-5-|
-----------------------------------------------------------------|
-----------------------------------------------------------------|
-----------------------------------------------------------------|
-----------------------------------------------------------------|

-5-3---3------^--5-3---3------^--5-3---3------^--5-3---3---------|
-----6---6-5-3-5-----6---6-5-3-5-----6---6-5-3-5-----6---6-5-3-2-|
-----------------------------------------------------------------|
-----------------------------------------------------------------|
-----------------------------------------------------------------|
-----------------------------------------------------------------|




4:07

L
----------------------------------------------------------|
----------------------------------------------------------|
-------------9-----------------------------/\-------------|
---------9----------9---10------9---12----9--10-9---------|
-2-------------------------------------------------12-10--|
-0--00-0---0---00-0---0----00-0---0-----------------------|
    ** *   *   ** *   *    ** *   *
R
----------------------------------------------------------|
----------------------------------------------------------|
-------------9--------------------------------------------|
------------------------10-----------12---9--10-9---------|
-7-------------------------------------------------12-10--|
----00-0-7-0---00-0-7-0----00-0-7-0-----------------------|
    ** *   *   ** *   *    ** *   *
L
----------------------------------------------------------|
----------------------------------------------------------|
-------------9-----------------------------/\-------------|
---------9----------9---10------9---12----9--10-9---------|
-2-------------------------------------------------12-10--|
-0--00-0---0---00-0---0----00-0---0-----------------------|
    ** *   *   ** *   *    ** *   *
R
----------------------------------------------------------|
----------------------------------------------------------|
-------------9--------------------------------------------|
------------------------10-----------12---9--10-9---------|
-7-------------------------------------------------12-10--|
----00-0-7-0---00-0-7-0----00-0-7-0-----------------------|
    ** *   *   ** *   *    ** *   *
L
----------------------------------------------------------|
----------------------------------------------------------|
-------------9-----------------------------/\-------------|
---------9----------9---10------9---12----9--10-9---------|
-2-------------------------------------------------12-10--|
-0--00-0---0---00-0---0----00-0---0-----------------------|
    ** *   *   ** *   *    ** *   *
R
----------------------------------------------------------|
----------------------------------------------------------|
-------------9--------------------------------------------|
------------------------10-----------12---9--10-9---------|
-7-------------------------------------------------12-10--|
----00-0-7-0---00-0-7-0----00-0-7-0-----------------------|
    ** *   *   ** *   *    ** *   *
L
----------------------------------------------------------|
----------------------------------------------------------|
-------------9-----------------------------/\-------------|
---------9----------9---10------9---12----9--10-9---------|
-2-------------------------------------------------12-10--|
-0--00-0---0---00-0---0----00-0---0-----------------------|
    ** *   *   ** *   *    ** *   *
R
----------------------------------------------------------|
----------------------------------------------------------|
-------------9--------------------------------------------|
------------------------10-----------12---9--10-9---------|
-7-------------------------------------------------12-10--|
----00-0-7-0---00-0-7-0----00-0-7-0-----------------------|
    ** *   *   ** *   *    ** *   *
L
----------------------------------------------------------|
----------------------------------------------------------|
-------------9-----------------------------/\-------------|
---------9----------9---10------9---12----9--10-9---------|
-2-------------------------------------------------12-10--|
-0--00-0---0---00-0---0----00-0---0-----------------------|
    ** *   *   ** *   *    ** *   *
R
----------------------------------------------------------|
----------------------------------------------------------|
-------------9--------------------------------------------|
------------------------10-----------12---9--10-9---------|
-7-------------------------------------------------12-10--|
----00-0-7-0---00-0-7-0----00-0-7-0-----------------------|
    ** *   *   ** *   *    ** *   *
L
----------------------------------------------------------|
----------------------------------------------------------|
-------------9-----------------------------/\-------------|
---------9----------9---10------9---12----9--10-9---------|
-2-------------------------------------------------12-10--|
-0--00-0---0---00-0---0----00-0---0-----------------------|
    ** *   *   ** *   *    ** *   *
R
----------------------------------------------------------|
----------------------------------------------------------|
-------------9--------------------------------------------|
------------------------10-----------12---9--10-9---------|
-7-------------------------------------------------12-10--|
----00-0-7-0---00-0-7-0----00-0-7-0-----------------------|
    ** *   *   ** *   *    ** *   *
L
----------------------------------------------------------|
----------------------------------------------------------|
-------------9-----------------------------/\-------------|
---------9----------9---10------9---12----9--10-9---------|
-2-------------------------------------------------12-10--|
-0--00-0---0---00-0---0----00-0---0-----------------------|
    ** *   *   ** *   *    ** *   *
R
----------------------------------------------------------|
----------------------------------------------------------|
-------------9--------------------------------------------|
------------------------10-----------12---9--10-9---------|
-7-------------------------------------------------12-10--|
----00-0-7-0---00-0-7-0----00-0-7-0-----------------------|
    ** *   *   ** *   *    ** *   *
L
----------------------------------------------------------|
----------------------------------------------------------|
-------------9-----------------------------/\-------------|
---------9----------9---10------9---12----9--10-9---------|
-2-------------------------------------------------12-10--|
-0--00-0---0---00-0---0----00-0---0-----------------------|
    ** *   *   ** *   *    ** *   *
R
----------------------------------------------------------|
----------------------------------------------------------|
-------------9--------------------------------------------|
------------------------10-----------12---9--10-9---------|
-7-------------------------------------------------12-10--|
----00-0-7-0---00-0-7-0----00-0-7-0-----------------------|
    ** *   *   ** *   *    ** *   *




5:34

MELODY
---------------------------------------------------------------|
---------------------------------------------------------------|
---------------------------------------------------------------|
-5---/7-7----7/9-------------------/12-12---9--9----\7-7\5-5-5-|
------------------10-9----/10-10-------------------------------|
---------------------------------------------------------------|
RYTHM
---------------------------------------------------------------|
---------------------------------------------------------------|
---------------------------------------------------------------|
-------------------5-----------------7-------------------------|
-7-----------------3-----------------5---------------2---------|
-------------------3-----------------5---------------0---------|


5:46

MELODY
-------------------------------------------------------|
----_--------------------------------------------------|
---/ \-------------------------------------------------|
-\4-4-5-4-4\2-2-2----2-4-5---4--5--7---5--7-----5------|
-------------------------------------------------------|
-------------------------------------------------------|
rythm
----------------------------------------------------|
----------------------------------------------------|
----------------------------------------------------|
--------------------5-----------7-------------------|
--------------------3-----------5-------------------|
--------------------3-----------5-------------------|


5:54

L
---------------------------------------------------|
---------------------------------------------------|
-------7--9-9-----7-9-/12-12-\11-11-\7-7/11-9------|
-7--9----------------------------------------------|
---------------------------------------------------|
---------------------------------------------------|
R
---------------------------------------------------|
------7--8-8------7-8-/12-12-\10-10-\7-7/10-8------|
-7--9----------------------------------------------|
---------------------------------------------------|
---------------------------------------------------|
---------------------------------------------------|
RYTHM
---------------------------------------------------|
---------------------------------------------------|
---------------------------------------------------|
------------------------------------5--------------|
-2----------------------------------3--------------|
-0----------------------------------3--------------|



6:02
L
-------------------------------------------------------------|
-------------------------------------------------------------|
-7-9-/11-12-\11-11-\7-7/9-9----7-9-/11-12--11-12-14--12-14---|
-------------------------------------------------------------|
-------------------------------------------------------------|
-------------------------------------------------------------|
R
-------------------------------------------------------------|
-7-8-/10-12-\10-10-\7-7/8-8----7-8-/10-12--10-12-13--12-13---|
-------------------------------------------------------------|
-------------------------------------------------------------|
-------------------------------------------------------------|
-------------------------------------------------------------|
RYTHM
-------------------------------------------------------------|
-------------------------------------------------------------|
-------------------------------------------------------------|
--7----------------------------------------------------5-----|
--5------------------2---------------------------------3-----|
--5------------------0---------------------------------3-----|


6:11
L
---------------------------------------------------------------|
---------------------------------------------------------------|
-12-12---11-11------9-9---9\7-9~~------------------------------|
---------------------------------------------------------------|
---------------------------------------------------------------|
---------------------------------------------------------------|
R
---------------------------------------------------------------|
-12-12---10-10------8-8---8\7-8~~~~~---------------------------|
---------------------------------------------------------------|
---------------------------------------------------------------|
---------------------------------------------------------------|
---------------------------------------------------------------|
RYTHM
---------------------------------------------------------------|
---------------------------------------------------------------|
---------------------------------------------------------------|
-7-------------------------------------------------------------|
-5------------------------------2------------------------------|
-5------------------------------0------------------------------|





--------------------------------------------------------------------|
--------------------------------------------------------------------|
--------------------------------------------------------------------|
-5------------7-----------------------5-----------7-----------------|
-3------------5-----------2-----------3-----------5-------------2---|
-3------------5-----------0-----------3-----------5-------------0---|




6:40

L
--------------------------------------------------------|
--------------------------------------------------------|
--------------------------------------------------------|
----------9------7----------------------------10--9-----|
-7----10------9-----10-------------9-----7--------------|
-----------------------10--8----10-----8----------------|



L
--------------------------------------------------------|
--------------------------------------------------------|
--------------------------------------------------------|
----------9------7-----------------------------10--9----|
-7----10------9-----10-------------9-----7--------------|
-----------------------10--8----10-----8----------------|

R
---------------------------------------------------------------|
---------------------------------------------------------------|
---------------------------------------------------------------|
---------------------------------------------------------------|
-10----------9-----10-----7-----------7--------6--7------------|
---------------------------------------------------------------|



L
--------------------------------------------------------|
--------------------------------------------------------|
--------------------------------------------------------|
----------9------7-----------------------------10--9----|
-7----10------9-----10-------------9-----7--------------|
-----------------------10--8----10-----8----------------|
R
--------------------------------------------------------|
--------------------------------------------------------|
--------------------------------------------------------|
----------------------------------------------14--12----|
-7-----------9-----10---9---10----------10--------------|
--------------------------------------------------------|



L
--------------------------------------------------------|
--------------------------------------------------------|
--------------------------------------------------------|
----------9------7-----------------------------10--9----|
-7----10------9-----10-------------9-----7--------------|
-----------------------10--8----10-----8----------------|
R
--------------------------------------------------------|
--------------------------------------------------------|
-------------------12--12-------------------------------|
--------------------X---X-------------------------------|
-7-----------9-----10--10-10\7-7----5--7-------6--------|
--------------------------------------------------------|


L
----------------------------------------------------------|
----------------------------------------------------------|
----------------------------------------------------------|
----------9------7-----------------------------10--9------|
-7----10------9-----10-------------9-----7-------------7--|
-----------------------10--8----10-----8------------------|
R
----------------------------------------------------------|
----------------------------------------------------------|
-------------------12--12---------------------------------|
--------------------X---X---------------------------------|
-7-----------9-----10--10-10\7-7----5--7-------6---6---7--|
----------------------------------------------------------|
Добавлено: 20.10.2013
Другие материалы по этой песне:
  • Аккорды и текст

Страница создана 20.10.2013
http://primanota.ru/my-dying-bride/a-map-of-all-our-failures-chords.htm
Привет, Гость.
Предлагаем пройти революционный курс по гитаре.
Подарок от PrimaNota.Ru, забирай!