PrimaNota.ru - самый крупный в мире бесплатный архив песенных текстов, аккордов, табулатур и нот


My Dying Bride - A Tapestry Scorned - таба, видео

Регистрация Запомнить меня
Войти через:  Facebook Google Twitter Vk Yandex Mail.ru

My Dying Bride - A Tapestry Scorned - таба, видео

Печатать
Просмотров: 106
Авторы музыки: My Dying Bride
Авторы текста: Aaron Stainthorpe
MY DYING BRIDE

A TAPESTRY SCORNED

C#-F#-B-E-G#-C#


TABBED BY-andherembrace




------------------------------------------------------------|
------------------------------------------------------------|
------------------------------------------------------------|
------------------------------------------------------------|
----------5--7-----5----------------------------------------|
-0--3--7---------------5----5--5--3----3--2-----2--2/5-5----|


L
----------------------------------------------------------------|
----------------------------------------------------------------|
----------------------------------------------------------------|
----------------------------------------------------------------|
----------5--7-----5--------------------------------------------|
-0--3--7---------------5----5--5---3----3--3---2-----2--2/5-5---|
R
-----------------------------------------------------------------|
-----------------------------------------------------------------|
-----------------------------------------------------------------|
---9--12-11------------------------------------------------------|
10----------10-----12---12---12--12--10---10--10---9---9--9/12-12|
-----------------------------------------------------------------|



L
----------------------------------------------------------------|
----------------------------------------------------------------|
----------------------------------------------------------------|
----------------------------------------------------------------|
----------5--7-----5--------------------------------------------|
-0--3--7---------------5----5--5---3----3--3---2-----2--2/5-5---|
R
-----------------------------------------------------------------|
-----------------------------------------------------------------|
-----------------------------------------------------------------|
---9--12-11------------------------------------------------------|
10----------10-----12---12---12--12--10---10--10---9---9--9/12-12|
-----------------------------------------------------------------|


L
----------------------------------------------------------------|
----------------------------------------------------------------|
----------------------------------------------------------------|
----------------------------------------------------------------|
----------5--7-----5--------------------------------------------|
-0--3--7---------------5----5--5---3----3--3---2-----2--2/5-5---|
R
----------------------------------------------------------------|
----------------------------------------------------------------|
----------------------------------------------------------------|
---9--8---------------------------------------------------------|
10-------10--9-----7---7----7--7--7----7--7--7------7--7--7\-0--|
----------------------------------------------------------------|



L
----------------------------------------------------------------|
----------------------------------------------------------------|
----------------------------------------------------------------|
------------------FEEDBACK NOISE--------------------------------|
----------5--7--------------------------------------------------|
-0--3--7--------------------------------------------------------|
R
----------------------------------------------------------------|
----------------------------------------------------------------|
----------------------------------------------------------------|
---9--12-11-----------------------------------------------------|
10----------10----FEEDBACK NOISE--------------------------------|
----------------------------------------------------------------|


L
----------------------------------------------------------------|
----------------------------------------------------------------|
----------------------------------------------------------------|
------------------FEEDBACK NOISE--------------------------------|
----------5--7--------------------------------------------------|
-0--3--7--------------------------------------------------------|
R
----------------------------------------------------------------|
----------------------------------------------------------------|
----------------------------------------------------------------|
---9--12-11-----------------------------------------------------|
10----------10----FEEDBACK NOISE--------------------------------|
----------------------------------------------------------------|


L
----------------------------------------------------------------|
----------------------------------------------------------------|
----------------------------------------------------------------|
------------------FEEDBACK NOISE--------------------------------|
----------5--7--------------------------------------------------|
-0--3--7--------------------------------------------------------|
R
----------------------------------------------------------------|
----------------------------------------------------------------|
----------------------------------------------------------------|
---9--12-11-----------------------------------------------------|
10----------10----FEEDBACK NOISE--------------------------------|
----------------------------------------------------------------|







L
------------------------------------------------------------------------|
------------------------------------------------------------------------|
------------------------------------------------------------------------|
--------------------------------------------------------------^----^----|
22-10--9-7-\/10--9--7--9-10-12---10--9--7--10--9-7--10--9--7-9-10-9-10-9|
00----------------------------------------------------------------------|
**
R
------------------------------------------------------------------------|
------------------------------------------------------------------------|
------------------------------------------------------------------------|
------------------------------------------------------------------------|
-22-2---------------22-4---------------22-2---------------22-4----------|
-00-0---------------00-2---------------00-0---------------00-2----------|
 **                 **                 **                 **





L
-----------------------------------------|
-----------------------------------------|
-----------------------------------------|
-----------------------------------------|
-10--9--7--10--9-7-\/10--9--7--9--10-12--|
-----------------------------------------|
R
-----------------------------------------|
-----------------------------------------|
-----------------------------------------|
9---------9---------9--------------------|
---12--10---12-10------12--10--9--10-12--|
-----------------------------------------|


L

------------------------------------------|
------------------------------------------|
------------------------------------------|
------------------------------^----^------|
-10--9--7--10--9-7--10--9--7-9-10-9-10-9--|
------------------------------------------|
R
----------------------------------------------|
----------------------------------------------|
----------------------------------------------|
9---------9---------9-------------------^-----|
---12--10---12-10------12--10--9-/-10-12-14-12|
----------------------------------------------|


L
-----------------------------------------|
-----------------------------------------|
-----------------------------------------|
-----------------------------------------|
-10--9--7--10--9-7-\/10--9--7--9--10-12--|
-----------------------------------------|
R PH'D THROUGH OUT
-----------------------------------------|
-----------------------------------------|
-----------------------------------------|
9---------9---------9--------------------|
---12--10---12\10------12--10--9--10-12--|
-----------------------------------------|

L

------------------------------------------------------------|
------------------------------------------------------------|
------------------------------------------------------------|
------------------------------^----^------------------------|
-10--9--7--10--9-7--10--9--7-9-10-9-10-9--------10-10--9----|
-------------------------------------------------8--8--7----|
R
------------------------------------------------------------|
------------------------------------------------------------|
------------------------------------------------------------|
9---------9---------9-------------------^-------------------|
---12--10---12\10------12--10--9-/-10-12-14-12--10-10--9----|
-------------------------------------------------8--8--7----|





---------------------------------------------|
---------------------------------------------|
---------------------------------------------|
---------------------------------------------|
---------------------------------------------|
-0000-0000-0000-0000-1133-3333-3311-1111-----|
 **** **** **** **** **** **** **** ****

---------------------------------------------|
---------------------------------------------|
---------------------------------------------|
---------------------------------------------|
---------------------------------------------|
-0000-0000-0000-0000-1133-3333-3311-1111-----|
 **** **** **** **** **** **** **** ****

---------------------------------------------|
---------------------------------------------|
---------------------------------------------|
---------------------------------------------|
---------------------------------------------|
-0000-0000-0000-0000-1133-3333-3311-1111-----|
 **** **** **** **** **** **** **** ****

---------------------------------------------|
---------------------------------------------|
---------------------------------------------|
---------------------------------------------|
---------------------------------------------|
-0000-0000-0000-0000-1133-3333-3311-1111-----|
 **** **** **** **** **** **** **** ****

---------------------------------------------|
---------------------------------------------|
---------------------------------------------|
---------------------------------------------|
---------------------------------------------|
-0000-0000-0000-0000-1133-3333-3311-1111-----|
 **** **** **** **** **** **** **** ****

---------------------------------------------|
---------------------------------------------|
---------------------------------------------|
---------------------------------------------|
---------------------------------------------|
-0000-0000-0000-0000-1133-3333-3311-1111-----|
 **** **** **** **** **** **** **** ****

---------------------------------------------|
---------------------------------------------|
---------------------------------------------|
---------------------------------------------|
---------------------------------------------|
-0000-0000-0000-0000-1133-3333-3311-1111-----|
 **** **** **** **** **** **** **** ****

---------------------------------------------|
---------------------------------------------|
---------------------------------------------|
---------------------------------------------|
---------------------------------------------|
-0000-0000-0000-0000-1133-3333-3311-1111-----|
 **** **** **** **** **** **** **** ****




L
------------------------------------------------|
------------------------------------------------|
------------------------------------------------|
------------------------------------------------|
------------------------------------------------|
-0-0-0-0-0-0-0-0-0-0-0-0-0-0-0-0-0-0-0-0-0-0-0-0|
 * * * * * * * * * * * * * * * * * * * * * * * *
R
------------------------------------------------|
------------------------------------------------|
------------------------------------------------|
------------------------------------------------|
------------------------------------------------|
-0-0-0-0-0-0-0-0-0-0-0-0-0-0-0-0-0-0-0-0-0-0-0-0|
 * * * * * * * * * * * * * * * * * * * * * * * *
L
----------------------------------------------------|
----------------------------------------------------|
----------------------------------------------------|
----------------------------------------------------|
--------------------------------------1-1-1-1-1-1---|
--3-3-3-3-3-3-1-1-1-1-1-1-3-3-3-3-3-3---------------|
  * * * * * * * * * * * * * * * * * * * * * * * *
R
----------------------------------------------------|
----------------------------------------------------|
----------------------------------------------------|
----------------------------------------------------|
----------------------------------------------------|
--3-3-3-3-3-3-1-1-1-1-1-1-3-3-3-3-3-3-1-1-1-1-1-1---|
  * * * * * * * * * * * * * * * * * * * * * * * * 



L
------------------------------------------------|
------------------------------------------------|
------------------------------------------------|
------------------------------------------------|
-------------7-7-7-7-7-7-5-5-5-5-5-5-3-3-3-3-3-3|
-0-0-0-0-0-0------------------------------------|
 * * * * * * * * * * * * * * * * * * * * * * * * 

R
------------------------------------------------|
------------------------------------------------|
------------------------------------------------|
------------------------------------------------|
------------------------------------------------|
-0-0-0-0-0-0-0-0-0-0-0-0-0-0-0-0-0-0-0-0-0-0-0-0|
 * * * * * * * * * * * * * * * * * * * * * * * *
L
----------------------------------------------------|
----------------------------------------------------|
----------------------------------------------------|
----------------------------------------------------|
--------------------------------------1-1-1-1-1-1---|
--3-3-3-3-3-3-1-1-1-1-1-1-3-3-3-3-3-3---------------|
  * * * * * * * * * * * * * * * * * * * * * * * *
R
----------------------------------------------------|
----------------------------------------------------|
----------------------------------------------------|
----------------------------------------------------|
----------------------------------------------------|
--3-3-3-3-3-3-1-1-1-1-1-1-3-3-3-3-3-3-1-1-1-1-1-1---|
  * * * * * * * * * * * * * * * * * * * * * * * * 



L
-------------------------------------------------------|
-------------------------------------------------------|
-------------------------------------------------------|
-------------------------------------------------------|
-------------7-7-7-7-7-7-10-10-10-10-10-10-8-8-8-8-8-8-|
-0-0-0-0-0-0-------------------------------------------|
 * * * * * * * * * * * * * * * * * * * * * * * * 

R
------------------------------------------------|
------------------------------------------------|
------------------------------------------------|
------------------------------------------------|
------------------------------------------------|
-0-0-0-0-0-0-0-0-0-0-0-0-0-0-0-0-0-0-0-0-0-0-0-0|
 * * * * * * * * * * * * * * * * * * * * * * * *
L
----------------------------------------------------|
----------------------------------------------------|
----------------------------------------------------|
----------------------------------------------------|
--------------------------------------1-1-1-1-1-1---|
--3-3-3-3-3-3-1-1-1-1-1-1-3-3-3-3-3-3---------------|
  * * * * * * * * * * * * * * * * * * * * * * * *
R
----------------------------------------------------|
----------------------------------------------------|
----------------------------------------------------|
----------------------------------------------------|
----------------------------------------------------|
--3-3-3-3-3-3-1-1-1-1-1-1-3-3-3-3-3-3-1-1-1-1-1-1---|
  * * * * * * * * * * * * * * * * * * * * * * * * 


L
------------------------------------------------|
------------------------------------------------|
------------------------------------------------|
------------------------------------------------|
-------------7-7-7-7-7-7-5-5-5-5-5-5-7-7-7-7-7-7|
-0-0-0-0-0-0------------------------------------|
 * * * * * * * * * * * * * * * * * * * * * * * * 

R
------------------------------------------------|
------------------------------------------------|
------------------------------------------------|
------------------------------------------------|
------------------------------------------------|
-0-0-0-0-0-0-0-0-0-0-0-0-0-0-0-0-0-0-0-0-0-0-0-0|
 * * * * * * * * * * * * * * * * * * * * * * * *
L
----------------------------------------------------|
----------------------------------------------------|
----------------------------------------------------|
----------------------------------------------------|
--------------------------------------1-1-1-1-1-1---|
--3-3-3-3-3-3-1-1-1-1-1-1-3-3-3-3-3-3---------------|
  * * * * * * * * * * * * * * * * * * * * * * * *
R
----------------------------------------------------|
----------------------------------------------------|
----------------------------------------------------|
----------------------------------------------------|
----------------------------------------------------|
--3-3-3-3-3-3-1-1-1-1-1-1-3-3-3-3-3-3-1-1-1-1-1-1---|
  * * * * * * * * * * * * * * * * * * * * * * * * 


L
------------------------------------------------|
------------------------------------------------|
------------------------------------------------|
------------------------------------------------|
-------------3-3-3-3-3-3-2-2-2-2-2-2-0-0-0-0-0-0|
-0-0-0-0-0-0------------------------------------|
 * * * * * * * * * * * * * * * * * * * * * * * * 

R
------------------------------------------------|
------------------------------------------------|
------------------------------------------------|
------------------------------------------------|
------------------------------------------------|
-0-0-0-0-0-0-0-0-0-0-0-0-0-0-0-0-0-0-0-0-0-0-0-0|
 * * * * * * * * * * * * * * * * * * * * * * * *
L
----------------------------------------------------|
----------------------------------------------------|
----------------------------------------------------|
----------------------------------------------------|
--------------------------------------1-1-1-1-1-1---|
--3-3-3-3-3-3-1-1-1-1-1-1-3-3-3-3-3-3---------------|
  * * * * * * * * * * * * * * * * * * * * * * * *
R
----------------------------------------------------|
----------------------------------------------------|
----------------------------------------------------|
----------------------------------------------------|
----------------------------------------------------|
--3-3-3-3-3-3-1-1-1-1-1-1-3-3-3-3-3-3-1-1-1-1-1-1---|
  * * * * * * * * * * * * * * * * * * * * * * * * 


---------------------------------------------------------------|
---------------------------------------------------------------|
---------------------------------------------------------------|
---------------------------------------------------------------|
-2-------------------------------------------------------------|
-0-------------------------------------------------------------|




L
-------------------------------------------------|
-------------------------------------------------|
-------------------------------------------------|
--------------5/10-10~--10---9----------9---7----|
----------/7-----------------------10------------|
-0--3--7-----------------------------------------|
R
-------------------------------------------------|
-------------------------------------------------|
-------------------------------------------------|
-------------------------------------------------|
---------/7--10/3-3-----3---2----------2---------|
-0--3--7--------------------------3---------5----|


L
-------------------------------------------------|
-------------------------------------------------|
-------------------------------------------------|
--------------5/10-10~--10---9----------9---7----|
----------/7-----------------------10------------|
-0--3--7-----------------------------------------|
R
-------------------------------------------------|
-------------------------------------------------|
-------------------------------------------------|
-------------------------------------------------|
---------/7--10/3-3-----3---2----------2---------|
-0--3--7--------------------------3---------5----|


L
-----------------------------------------------------------|
--------------------------------------------_--------------|
------------------------/\-----/\----------/ \-------------|
--------------5/10-10-101210-101210-9----9-10-12-10-9-10-7-|
----------/7-----------------------------------------------|
-0--3--7---------------------------------------------------|
R
-------------------------------------------------|
-------------------------------------------------|
-------------------------------------------------|
-------------------------------------------------|
---------/7--10/3-3-----3---2----------2---------|
-0--3--7--------------------------3---------5----|


L
-----------------------------------------------------------|
--------------------------------------------_--------------|
------------------------/\-----/\----------/ \-------------|
--------------5/10-10-101210-101210-9----9-10-12-10-9-10-7-|
----------/7-----------------------------------------------|
-0--3--7---------------------------------------------------|
R
-------------------------------------------------|
-------------------------------------------------|
-------------------------------------------------|
-------------------------------------------------|
---------/7--10/3-3-----3---2----------2---------|
-0--3--7--------------------------3---------5----|





L
----------------------------------------------------------------|
----------------------------------------------------------------|
12-12-12--11-9--------------------------------------------------|
---------------12-\---------------------------------------------|
--------------------7/9-9-9/10-10-10\9-9-9/12-12-12\10-10-10/14-|
----------------------------------------------------------------|
CONT
---------------------------------------|
---------------------------------------|
---------------------------------------|
---------------------------------------|
-14-14\12-12-12/15-15-15\14-14-14\7-7--|
---------------------------------------|

R
-------------------------------------------------|
-------------------------------------------------|
-------------------------------------------------|
-------------------------------------------------|
---------/7--10/3-3-----3---2----------2---------|
-0--3--7--------------------------3---------5----|



L
----------------------------------------------------------------|
----------------------------------------------------------------|
12-12-12--11-9--------------------------------------------------|
---------------12-\---------------------------------------------|
--------------------7/9-9-9/10-10-10\9-9-9/12-12-12\10-10-10/14-|
----------------------------------------------------------------|
CONT
---------------------------------------|
---------------------------------------|
---------------------------------------|
---------------------------------------|
-14-14\12-12-12/15-15-15\14-14-14\7-7--|
---------------------------------------|

R
-------------------------------------------------|
-------------------------------------------------|
-------------------------------------------------|
-------------------------------------------------|
---------/7--10/3-3-----3---2----------2---------|
-0--3--7--------------------------3---------5----|



L
-----------------------------------------------------------|
--------------------------------------------_--------------|
------------------------/\-----/\----------/ \-------------|
--------------5/10-10-101210-101210-9----9-10-12-10-9-10-7-|
----------/7-----------------------------------------------|
-0--3--7---------------------------------------------------|
R
-----------------------------------------------------------|
-----------------------------------------------------------|
------------------------------- -^------^--TR~~~~~~~~~-----|
-9\5-5\2-2--/9~--7\5-5---5--4/5-7-5-5--4-5--45-------------|
-----------------------------------------------------------|
-----------------------------------------------------------|


L
-----------------------------------------------------------|
--------------------------------------------_--------------|
------------------------/\-----/\----------/ \-------------|
--------------5/10-10-101210-101210-9----9-10-12-10-9-10-7-|
----------/7-----------------------------------------------|
-0--3--7---------------------------------------------------|
R
-----------------------------------------------------------|
-----------------------------------------------------------|
------------------------------- -^------^--TR~~~~~~~~~-----|
-9\5-5\2-2--/9~--7\5-5---5--4/5-7-5-5--4-5--45-------------|
-----------------------------------------------------------|
-----------------------------------------------------------|



----------------------------|
----------------------------|
----------------------------|
----------------------------|
----------5--7--------------|
-0--3--7--------------------|
Добавлено: 17.08.2013
Другие материалы по этой песне:
  • Аккорды и текст

Страница создана 17.08.2013
http://primanota.ru/my-dying-bride/a-tapestry-scorned-chords.htm
Привет, Гость.
Предлагаем пройти революционный курс по гитаре.
Подарок от PrimaNota.Ru, забирай!