PrimaNota.ru - самый крупный в мире бесплатный архив песенных текстов, аккордов, табулатур и нот


My Dying Bride - Like A Perpetual Funeral - таба, видео

Регистрация Запомнить меня
Войти через:  Facebook Google Twitter Vk Yandex Mail.ru

My Dying Bride - Like A Perpetual Funeral - таба, видео

Печатать
Просмотров: 184
Авторы музыки: My Dying Bride
Авторы текста: Aaron Stainthorpe
MY DYING BRIDE

LIKE A PERPETUAL FUNERAL


C#-F#-B-E-G#-C#


TABBED BY andherembrace



L
-----------------------------------------------------------------------|
-----------------------------------------------------------------------|
-----------------------------------------------------------------------|
------------------------------------^----------------------------------|
--^------7---5----------^------7--10\9------^-----7---7----------------|
-2-3-0-----------------2-3-0---------------2-3-0-----------5------3----|
R
-----------------------------------------------------------------------|
-----------------------------------------------------------------------|
-----------------------------------------------------------------------|
------------------------------5--9--4----------------------------------|
--^---------------------^-------------------^------------------7------5|
-2-3-0---8---7---------2-3-0---------------2-3-0--8---7--\[5]----------|





L
-----------------------------------------------------------------------|
-----------------------------------------------------------------------|
-----------------------------------------------------------------------|
-----------------------------------------------------------------------|
14--14-14-14-12-12--12--12-12-12-10-10--10--10-10-10-9-9--9--9-9-9-7-7-|
-----------------------------------------------------------------------|
R
----------------------------------------------------------------------|
----------------------------------------------------------------------|
----------------------------------------------------------------------|
-----------------------------------------------------------------/\---|
-----3-3-3-2-2----------3-3-3-2-2------------3-3-3-2-2------3-3-3532--|
0---------------3--5-----------------3--0--------------3--5----------3|

L
----------------------------|
----------------------------|
----------------------------|
-------^--------------------|
/14--12-14-12\10------------|
----------------------------|
R
----------------------------|
----------------------------|
----------------------------|
----------------------------|
----------------------------|
-0--------------------------|



CLEAN
---------------------------------------------------------------|
---------------------------------------------------------------|
-4-5-7-4--------4-5-7-4--------4-5-7-4--------4-5-7-4----------|
---------5-4------------5-4------------5-4------------5-4------|
-------------7--------------7--------------7--------------7----|
---------------------------------------------------------------|
DIST
---------------------------------------------------------------|
---------------------------------------------------------------|
---------------------------------------------------------------|
---------------------------------------------------------------|
---------------------------------------------------------------|
----------------------------------------------------------5----|

CLEAN
---------------------------------------------------------------|
---------------------------------------------------------------|
-4-5-7-4--------4-5-7-4--------4-5-7-4--------4-5-7-4----------|
---------5-4------------5-4------------5-4------------5-4------|
-------------7--------------7--------------7--------------7----|
---------------------------------------------------------------|
DIST
---------------------------------------------------------------|
---------------------------------------------------------------|
---------------------------------------------------------------|
---------------------------------------------------------------|
----------------------------3----------------------------------|
-----------3----------------------------------------------7----|


CLEAN
---------------------------------------------------------------|
---------------------------------------------------------------|
-4-5-7-4--------4-5-7-4--------4-5-7-4--------4-5-7-4----------|
---------5-4------------5-4------------5-4------------5-4------|
-------------7--------------7--------------7--------------7----|
---------------------------------------------------------------|
DIST
---------------------------------------------------------------|
---------------------------------------------------------------|
---------------------------------------------------------------|
---------------------------------------------------------------|
----------------------------3----------------------------------|
-----------3----------------------------------------------5----|

CLEAN
---------------------------------------------------------------|
---------------------------------------------------------------|
-4-5-7-4--------4-5-7-4--------4-5-7-4--------4-5-7-4----------|
---------5-4------------5-4------------5-4------------5-4------|
-------------7--------------7--------------7--------------7----|
---------------------------------------------------------------|
DIST
---------------------------------------------------------------|
---------------------------------------------------------------|
---------------------------------------------------------------|
---------------------------------------------------------------|
----------------------------3----------------------------------|
-----------3----------------------------------------------5----|

CLEAN
---------------------------------------------|
---------------------------------------------|
-4-5-7-4--------4-5-7-4--------4-5-7-4-------|
---------5-4------------5-4------------5-4---|
-------------7--------------7----------------|
---------------------------------------------|
DIST
---------------------------------------------|
---------------------------------------------|
---------------------------------------------|
---------------------------------------------|
----------------------------3----------------|
-----------3---------------------------------|






R
----------------------------------------------|
----------------------------------------------|
----------------------------------------------|
----------------------------------------------|
----10-----7-----9-----2------5-----7-----7---|
----------------------------------------------|




L
----------------------------------------------|
----------------------------------------------|
-^--------------------------------------------|
9-10-9-----------------/\---------------------|
----------------------9--10---7---------------|
----------------------------------------------|
R
----------------------------------------------|
----------------------------------------------|
----------------------------------------------|
----------------------------------------------|
-----10-----7-----9-----2------5-----7-----7--|
----------------------------------------------|

L
----------------------------------------------|
----------------------------------------------|
-^--------------------------------------------|
9-10-9-----------------/\---------------------|
----------------------9--10---7---------------|
----------------------------------------------|
R
----------------------------------------------|
----------------------------------------------|
----------------------------------------------|
----------------------------------------------|
-----10-----7-----9-----2------5-----7-----7--|
----------------------------------------------|

L
----------------------------------------------|
----------------------------------------------|
-^--------------------------------------------|
9-10-9-----------------/\---------------------|
----------------------9--10---7---------------|
----------------------------------------------|
R
----------------------------------------------|
----------------------------------------------|
----------------------------------------------|
----------------------------------------------|
-----10-----7-----9-----2------5-----7-----7--|
----------------------------------------------|

L
----------------------------------------------|
----------------------------------------------|
-^--------------------------------------------|
9-10-9-----------------/\---------------------|
----------------------9--10---7---------------|
----------------------------------------------|
R
----------------------------------------------|
----------------------------------------------|
----------------------------------------------|
--------------FEEDBACK------------------------|
-----10---\9-----------------10---\9----------|
----------------------------------------------|


L
----------------------------------------------|
----------------------------------------------|
-^--------------------------------------------|
9-10-9-----------------/\---------------------|
----------------------9--10---7---------------|
----------------------------------------------|
R
----------------------------------------------|
----------------------------------------------|
----------------------------------------------|
----------------------------------------------|
-----10---\9-----------------10---\9----------|
----------------------------------------------|





L
---------------------------------------------------|
---------------------------------------------------|
---------------------------------------------------|
--7---7---7----------------------------------------|
-/5---5---5-8-8---8--7-7---7---7-3-3------3--5-----|
------------6-6---6--5-5---5---5-1-1------1--------|
R
---------------------------------------------------|
---------------------------------------------------|
---------------------------------------------------|
-/7--7----7----------------------------------------|
------------8-8---8--7-7---7---7-3-3-----3-5-------|
---------------------------------------------------|

L
---------------------------------------------------|
---------------------------------------------------|
---------------------------------------------------|
--7---7---7----------------------------------------|
-/5---5---5-8-8---8--7-7---7---7-3-3------3--5-----|
------------6-6---6--5-5---5---5-1-1------1--------|
R
---------------------------------------------------|
---------------------------------------------------|
---------------------------------------------------|
-/7--7----7----------------------------------------|
------------8-8---8--7-7---7---7-3-3-----3-5-------|
---------------------------------------------------|






OVERDUB
--------------------------------------------------------------|
----___--------------------------------___--------------------|
---/   \----^-------------------------/   \----^--------------|
5/7-8-7-8-10-8-10-10--12-12--12----5/7-8-7-8-10-8-10-8--7-7--7|
--------------------------------------------------------------|
--------------------------------------------------------------|
L
---------------------------------------------------|
---------------------------------------------------|
---------------------------------------------------|
--7---7---7----------------------------------------|
-/5---5---5-8-8---8--7-7---7---7-3-3------3--5-----|
------------6-6---6--5-5---5---5-1-1------1--------|
R
---------------------------------------------------|
---------------------------------------------------|
---------------------------------------------------|
-/7--7----7----------------------------------------|
------------8-8---8--7-7---7---7-3-3-----3-5-------|
---------------------------------------------------|


OVERDUB
--------------------------------------------------------------|
----___--------------------------------___--------------------|
---/   \----^-------------------------/   \----^--------------|
5/7-8-7-8-10-8-10-10--12-12--12----5/7-8-7-8-10-8-10-8--7-7--7|
--------------------------------------------------------------|
--------------------------------------------------------------|
L
---------------------------------------------------|
---------------------------------------------------|
---------------------------------------------------|
--7---7---7----------------------------------------|
-/5---5---5-8-8---8--7-7---7---7-3-3------3--5-----|
------------6-6---6--5-5---5---5-1-1------1--------|
R
---------------------------------------------------|
---------------------------------------------------|
---------------------------------------------------|
-/7--7----7----------------------------------------|
------------8-8---8--7-7---7---7-3-3-----3-5-------|
---------------------------------------------------|

OVERDUB
--------------------------------------------------------------|
----___--------------------------------___--------------------|
---/   \----^-------------------------/   \----^--------------|
5/7-8-7-8-10-8-10-10--12-12--12----5/7-8-7-8-10-8-10-8--7-7--7|
--------------------------------------------------------------|
--------------------------------------------------------------|
L
---------------------------------------------------|
---------------------------------------------------|
---------------------------------------------------|
--7---7---7----------------------------------------|
-/5---5---5-8-8---8--7-7---7---7-3-3------3--5-----|
------------6-6---6--5-5---5---5-1-1------1--------|
R
---------------------------------------------------|
---------------------------------------------------|
---------------------------------------------------|
-/7--7----7----------------------------------------|
------------8-8---8--7-7---7---7-3-3-----3-5-------|
---------------------------------------------------|


OVERDUB
--------------------------------------------------------------|
----___--------------------------------___--------------------|
---/   \----^-------------------------/   \----^--------------|
5/7-8-7-8-10-8-10-10--12-12--12----5/7-8-7-8-10-8-10-8--7-7--7|
--------------------------------------------------------------|
--------------------------------------------------------------|
L
---------------------------------------------------|
---------------------------------------------------|
---------------------------------------------------|
--7---7---7----------------------------------------|
-/5---5---5-8-8---8--7-7---7---7-3-3------3--5---2-|
------------6-6---6--5-5---5---5-1-1------1------0-|
R
---------------------------------------------------|
---------------------------------------------------|
---------------------------------------------------|
-/7--7----7----------------------------------------|
------------8-8---8--7-7---7---7-3-3-----3-5-----2-|
-------------------------------------------------0-|




L
---------------------------------------------------------------|
---------------------------------------------------------------|
---------------------------------------------------------------|
---------------------------------------------------------------|
-----------------------------------------------------7----7----|
---------------------------------------------------------------|
R
---------------------------------------------------------------|
---------------------------------------------------------------|
---_-----------------------------------------------------------|
--/ \----------------------------------------------------------|
-9---10---7---------10-----7-----9-----2------5-----7-----7----|
---------------------------------------------------------------|



L
----------------------------------------------|
----------------------------------------------|
-^--------------------------------------------|
9-10-9-----------------/\---------------------|
----------------------9--10---7---------------|
----------------------------------------------|
R
----------------------------------------------|
----------------------------------------------|
----------------------------------------------|
----------------------------------------------|
-----10-----7-----9-----2------5-----7-----7--|
----------------------------------------------|

L
----------------------------------------------|
----------------------------------------------|
-^--------------------------------------------|
9-10-9-----------------/\---------------------|
----------------------9--10---7---------------|
----------------------------------------------|
R
----------------------------------------------|
----------------------------------------------|
----------------------------------------------|
----------------------------------------------|
-----10-----7-----9-----2------5-----7-----7--|
----------------------------------------------|

L
----------------------------------------------|
----------------------------------------------|
-^--------------------------------------------|
9-10-9-----------------/\---------------------|
----------------------9--10---7---------------|
----------------------------------------------|
R
----------------------------------------------|
----------------------------------------------|
----------------------------------------------|
----------------------------------------------|
-----10-----7-----9-----2------5-----7-----7--|
----------------------------------------------|



L
-------------------------------------------------------------------|
-------------------------------------------------------------------|
-------------------------------------------------------------------|
9---7----5--5-----9---7-----5--5-----9---7-----5--5----9---7---5--5|
-------------------------------------------------------------------|
-------------------------------------------------------------------|
R
------------------------------------------------------------------|
------------------------------------------------------------------|
------------------------------------------------------------------|
------------------------------------------------------------------|
10--9---7-7------10--9---7-7---------10--9---7-7------10--9---7-7-|
------------------------------------------------------------------|




L
---------------------------------------------------|
---------------------------------------------------|
---------------------------------------------------|
--7---7---7----------------------------------------|
-/5---5---5-8-8---8--7-7---7---7-3-3------3--------|
--5---5---5-6-6---6--5-5---5---5-1-1------1--------|
R
---------------------------------------------------|
---------------------------------------------------|
---------------------------------------------------|
-/7--7----7----------------------------------------|
------------8-8---8--7-7---7---7-3-3-----3-5-------|
---------------------------------------------------|

L
---------------------------------------------------|
---------------------------------------------------|
---------------------------------------------------|
--7---7---7----------------------------------------|
-/5---5---5-8-8---8--7-7---7---7-3-3------3--5-----|
------------6-6---6--5-5---5---5-1-1------1--------|
R
---------------------------------------------------|
---------------------------------------------------|
---------------------------------------------------|
-/7--7----7----------------------------------------|
------------8-8---8--7-7---7---7-3-3-----3-5-------|
---------------------------------------------------|


L
---------------------------------------------------|
---------------------------------------------------|
---------------------------------------------------|
--7---7---7----------------------------------------|
-/5---5---5-8-8---8--7-7---7---7-3-3------3--5-----|
------------6-6---6--5-5---5---5-1-1------1--------|
R
---------------------------------------------------|
---------------------------------------------------|
---------------------------------------------------|
-/7--7----7----------------------------------------|
------------8-8---8--7-7---7---7-3-3-----3-5-------|
---------------------------------------------------|


L
---------------------------------------------------|
---------------------------------------------------|
---------------------------------------------------|
--7---7---7----------------------------------------|
-/5---5---5-8-8---8--7-7---7---7-3-3------3--5-----|
------------6-6---6--5-5---5---5-1-1------1--------|
R
---------------------------------------------------|
---------------------------------------------------|
---------------------------------------------------|
-/7--7----7----------------------------------------|
------------8-8---8--7-7---7---7-3-3-----3-5-------|
---------------------------------------------------|




SOLO

-------------------------------------------------------------------|
----__---------------------------------------------__--------------|
---/  \ ---------------------------^--------------/  \-------------|
-14-15-14-12---12---12/14-15--15-17-15-14--/15--14-15-14\12--12--12|
-------------------------------------------------------------------|
-------------------------------------------------------------------|


------------------------------------------------|
-----------__-----------------------__----------|
----------/  \---------------------/  \---------|
-12/14--14-15-14\10--10--10--10--14-15-14-12----|
------------------------------------------------|
------------------------------------------------|

-----------------------------------------------------------|
-----------------------__--------------^---------^---------|
----------------------/  \-------^---17-14-14--14-15-14----|
-12-----/14-17--15--14-15-14---14-15-----------------------|
-----------------------------------------------------------|
-----------------------------------------------------------|

-----------------------------__---------------------------------------|
----------------^-----------/  \--------------------------------------|
-14\12-12/14--15-14-12-14-12-14-12----12------------------------------|
-----------------------------------15----15-14-15-14-12-14-12-12\10-12|
----------------------------------------------------------------------|
----------------------------------------------------------------------|


---------------------------------------------------------------|
-------------------------------------------------__------------|
-----------------------------------)(-----^-----/  \-----------|
--12-----\10-10/17-17~~---17\14-14------14-15-14-15-14\10-10---|
---------------------------------------------------------------|
---------------------------------------------------------------|


---------------------------------------------------------------|
----__---------------------------------------^---------^-------|
---/  \------------------------------------17-14-14--14-15-14--|
-14-15-14-12---12-----\10-10/17-17--17-17----------------------|
---------------------------------------------------------------|
---------------------------------------------------------------|

-----------------------------__---------------------------------------|
----------------^-----------/  \--------------------------------------|
-14\12-12/14--15-14-12-14-12-14-12----12------------------------------|
-----------------------------------15----15-14-15-14-12-14-12-12\10-12|
----------------------------------------------------------------------|
----------------------------------------------------------------------|






-17--------10-----------12---------17--------------------------|
----------------------------------------------15---------6-----|
---------------------------------------------------------------|
---------------------------------------------------------------|
---------------------------------------------------------------|
---------------------------------------------------------------|


---17---12-------------8-----------------------17-----15-------|
-----------------------------------15--------------------------|
---------------------------------------------------------------|
---------------------------------------------------------------|
---------------------------------------------------------------|
---------------------------------------------------------------|



-17---------13--12-------------17---12-------13-------10-------|
---------------------------------------------------------------|
---------------------------------------------------------------|
---------------------------------------------------------------|
---------------------------------------------------------------|
---------------------------------------------------------------|


--13--12---------13-------10------8-----12---13---10-----------|
---------------------------------------------------------------|
---------------------------------------------------------------|
---------------------------------------------------------------|
---------------------------------------------------------------|
---------------------------------------------------------------|


--8-----12---13---10---------13-----12----5--------13-----12----5-|
------------------------------------------------------------------|
------------------------------------------------------------------|
------------------------------------------------------------------|
------------------------------------------------------------------|
------------------------------------------------------------------|


----------------------------------------|
----------------------------------------|
--/10---9---7---5---7-------------------|
----------------------------------------|
----------------------------------------|
----------------------------------------|
Добавлено: 28.09.2013
Другие материалы по этой песне:
  • Аккорды и текст

Страница создана 28.09.2013
http://primanota.ru/my-dying-bride/like-a-perpetual-funeral-chords.htm
Привет, Гость.
Предлагаем пройти революционный курс по гитаре.
Подарок от PrimaNota.Ru, забирай!