PrimaNota.ru - самый крупный в мире бесплатный архив песенных текстов, аккордов, табулатур и нот


Municipal Waste - The Inebriator - таба, видео

Регистрация Запомнить меня
Войти через:  Facebook Google Twitter Vk Yandex Mail.ru

Municipal Waste - The Inebriator - таба, видео

Печатать
Просмотров: 67
Municipal Waste - The Inebriator
The Art Of Partying (2007)
Tabbed by ruker
Standard Tuning EADGBE

--------------
Key:
--------------
.  Palm Mute
x  Dead Note
/  Slide Up
\  Slide Down
() Tied Note
--------------


Pre-Riff A (0:00)
 Lead Left
||----------------------------------------------|
||----------------------------------------------|
||----------------------------------------------|
||----------------------------------------------|
||-nh-------------------------------------------|
||-9--Fade-In-----------------------------------|
|                                               |
|Lead Right                                     |
||----------------------------------------------|
||----------------------------------------------|
||-nh-------------------------------------------|
||-7-Fade-In------------------------------------|
||----------------------------------------------|
||----------------------------------------------|
|                                               |
|Rhythm Left                                    |
||----------------------------------------------|
||----------------------------------------------|
||--REST----------------------------------------|
||----------------------------------------------|
||--------6------6----6--6--6----7----6----2----|
||--------4------4----4--4--4----5----4----0----|
|                                               |
|Rhythm Right                                   |
||----------------------------------------------|
||----------------------------------------------|
||--REST----------------------------------------|
||----------------------------------------------|
||----------------------------------------------|
||----------------------------------------------|



|-----------------------------------------|
|-----------------------------------------|
|-----------------------5--Tremolo-Bar----|
|-----------------------nh---Dive---------|
|-----------------------------------------|
|-(9)-------------------------------------|
|                                         |
|                                         |
|-----------------------------------------|
|-----------------------------------------|
|-----------------------5--Tremolo-Bar----|
|-(7)-------------------nh---Dive---------|
|-----------------------------------------|
|-----------------------------------------|
|                                         |
|                                         |
|-----------------------------------------|
|-----------------------------------------|
|-----------------------------------------|
|-----------------------------------------|
|-4----4----4----7------7----7-/9-\7-\4---|
|-2----2----2----5------5----5-/7-\5-\2---|
|                                         |
|                                         |
|-----------------------------------------|
|-----------------------------------------|
|--REST-----------------------------------|
|-----------------------------------------|
|-----------------------7----7-/9-\7-\4---|
|-----------------------5----5-/7-\5-\2---|



|---------------------------------------|
|---------------------------------------|
|-5--Tremolo-Bar-Return-----------------|
|-nh--And-Inverted-Dip------------------|
|---------------------------------------|
|---------------------------------------|
|                                       |
|                                       |
|---------------------------------------|
|---------------------------------------|
|-5--Tremolo-Bar-Return-----------------|
|-nh--And-Inverted-Dip------------------|
|---------------------------------------|
|---------------------------------------|
|                                       |
|                                       |
|---------------------------------------|
|---------------------------------------|
|---------------------------------------|
|---------------------------------------|
|-6------6----6--6--6----7----6----2----|
|-4------4----4--4--4----5----4----0----|
|                                       |
|                                       |
|---------------------------------------|
|---------------------------------------|
|---------------------------------------|
|---------------------------------------|
|-6-------------------------------------|
|-4-------------------------------------|



|-----------------------------------------||
|-----------------------------------------||
|-(5)-------------------------------------||
|-----------------------------------------||
|-----------------------------------------||
|-----------------------------------------||
|                                          |
|                                          |
|-----------------------------------------||
|-----------------------------------------||
|-(5)-------------------------------------||
|-----------------------------------------||
|-----------------------------------------||
|-----------------------------------------||
|                                          |
|                                          |
|-----------------------------------------||
|-----------------------------------------||
|-----------------------------------------||
|-----------------------------------------||
|-4----4----4----7------7----7-/9-\7-\4---||
|-2----2----2----5------5----5-/7-\5-\2---||
|                                          |
|                                          |
|-----------------------------------------||
|-----------------------------------------||
|-----------------------------------------||
|-----------------------------------------||
|-4----4----4----7------7----7-/9-\7-\4---||
|-2----2----2----5------5----5-/7-\5-\2---||


Riff A (0:12)
 Rhythm Left & Right
||---------------------------------------|
||---------------------------------------|
||---------------------------------------|
||---------------------------------------|
||-6------6----6--6--6----7----6----2----|
||-4------4----4--4--4----5----4----0----|



|-----------------------------------------|
|-----------------------------------------|
|-----------------------------------------|
|-----------------------------------------|
|-4----4----4----7------7----7-/9-\7-\4---|
|-2----2----2----5------5----5-/7-\5-\2---|


 Lead Left & Right
|---------------------------------------|
|---------------------------------------|
|--REST---------------------------------|
|---------------------------------------|
|---------------------------------------|
|---------------------------------------|
|                                       |
|Rhythm Left & Right                    |
|---------------------------------------|
|---------------------------------------|
|---------------------------------------|
|---------------------------------------|
|-6------6----6--6--6----7----6----2----|
|-4------4----4--4--4----5----4----0----|



|-----------------------------------------|
|-----------------------------------------|
|-----------------------------------------|
|-----------------------14---14/16\14-----|
|-----------------------12---12/14\12-----|
|-----------------------------------------|
|                                         |
|                                         |
|-----------------------------------------|
|-----------------------------------------|
|-----------------------------------------|
|-----------------------------------------|
|-4----4----4----7------7----7-/9-\7-\4---|
|-2----2----2----5------5----5-/7-\5-\2---|



|---------------------------------------|
|---------------------------------------|
|---------------------------------------|
|-13-----13---13-13-13---14---13---9----|
|-11-----11---11-11-11---12---11---7----|
|---------------------------------------|
|                                       |
|                                       |
|---------------------------------------|
|---------------------------------------|
|---------------------------------------|
|---------------------------------------|
|-6------6----6--6--6----7----6----2----|
|-4------4----4--4--4----5----4----0----|



|-----------------------------------------|
|-----------------------------------------|
|-----------------------------------------|
|-11---11---11---14-----14---14/16\14-----|
|-9----9----9----12-----12---12/14\12-----|
|-----------------------------------------|
|                                         |
|                                         |
|-----------------------------------------|
|-----------------------------------------|
|-----------------------------------------|
|-----------------------------------------|
|-4----4----4----7------7----7-/9-\7-\4---|
|-2----2----2----5------5----5-/7-\5-\2---|



|---------------------------------------|
|---------------------------------------|
|---------------------------------------|
|-13-----13---13-13-13---14---13---9----|
|-11-----11---11-11-11---12---11---7----|
|---------------------------------------|
|                                       |
|                                       |
|---------------------------------------|
|---------------------------------------|
|---------------------------------------|
|---------------------------------------|
|-6------6----6--6--6----7----6----2----|
|-4------4----4--4--4----5----4----0----|



|-----------------------------------------|
|-----------------------------------------|
|-----------------------------------------|
|-11---11---11---14-----14---14/16\14-----|
|-9----9----9----12-----12---12/14\12-----|
|-----------------------------------------|
|                                         |
|                                         |
|-----------------------------------------|
|-----------------------------------------|
|-----------------------------------------|
|-----------------------------------------|
|-4----4----4----7------7----7-/9-\7-\4---|
|-2----2----2----5------5----5-/7-\5-\2---|



|---------------------------------------|
|---------------------------------------|
|-------------------REST----------------|
|-13-----13-----------------------------|
|-11-----11-Fade-Out--------------------|
|---------------------------------------|
|                                       |
|                                       |
|---------------------------------------|
|---------------------------------------|
|---------------------------------------|
|---------------------------------------|
|-6------6----6--6--6----7----6----2----|
|-4------4----4--4--4----5----4----0----|



|-----------------------------------------|
|-----------------------------------------|
|--REST-----------------------------------|
|-----------------------------------------|
|-----------------------------------------|
|-----------------------------------------|
|                                         |
|                                         |
|-----------------------------------------|
|-----------------------------------------|
|-----------------------------------------|
|-----------------------------------------|
|-4----4----4----7------7----7-/9-\7-\4---|
|-2----2----2----5------5----5-/7-\5-\2---|


Rhythm Left & Right
|---------------------------------------|
|---------------------------------------|
|---------------------------------------|
|---------------------------------------|
|-6------6----6--6--6----7----6----2----|
|-4------4----4--4--4----5----4----0----|



|----------------------------||
|----------------------------||
|----------------------------||
|----------------------------||
|-4----4----4----7-----------||
|-2----2----2----5-----------||


Pre-Riff B (0:38)
 Rhythm Left
||--------------------------------------------------------------------------|
||--------------------------------------------------------------------------|
||--------------------------------------------------------------------------|
||--------------------------------------------------------------------------|
||-------------------------5555----------------------7----6--7--9----7--4---|
||-444444444444444444444444----7--5--44444444444444445----4--5--7----5--2---|
|                                                         .  .       .  .   |
|Rhythm Right                                                               |
||--------------------------------------------------------------------------|
||--------------------------------------------------------------------------|
||----REST------------------------------REST--------------------------------|
||--------------------------------------------------------------------------|
||-6-----------------------5555------6--------------------------------------|
||-4---------------------------7--5--4--------------------------------------|



|--------------------------------------------------------------------------||
|--------------------------------------------------------------------------||
|--------------------------------------------------------------------------||
|--------------------------------------------------------------------------||
|-------------------------5555----------------------7----6--7--9----7--4---||
|-444444444444444444444444----7--5--44444444444444445----4--5--7----5--2---||
|                                                        .  .       .  .    |
|                                                                           |
|--------------------------------------------------------------------------||
|--------------------------------------------------------------------------||
|----REST------------------------------REST--------------------------------||
|--------------------------------------------------------------------------||
|-6-----------------------5555------6---------------7----6--7--9----7--4---||
|-4---------------------------7--5--4---------------5----4--5--7----5--2---||
                                                         .  .       .  .

Riff B (0:47)
 Rhythm Left & Right
||----------------------------------------------------------------------------||
||*--------------------------------------------------------------------------*||
||----------------------------------------------------------------------------||
||----------------------------------------------------------------------------||
||*-------------------------5555----------------------7----6--7--9----7--4---*||
||--444444444444444444444444----7--5--44444444444444445----4--5--7----5--2----||
                                                           .  .       .  .

Riff C (0:56)                                    4x
||-------------------------------------------------||
||*-----------------------------------------------*||
||-------------------------------------------------||
||-----------------------------------7---6---4-----||
||*-4--6----6--6--7----7--4--6----6--5---4---2----*||
||--2--4----4--4--5----5--2--4----4----------------||


Riff D (1:05)
 Rhythm Left
||------------------------------------------------------------------||
||------------------------------------------------------------------||
||------------------------------------------------------------------||
||-----7777------------7777------------7777------------7777---------||
||-6666555544444477666655554444447766665555444444776666555544444477-||
||-4444----222222554444----222222554444----222222554444----22222255-||
|                                                                    |
|Rhythm Right                                                        |
||------------------------------------------------------------------||
||------------------------------------------------------------------||
||----REST----------------------------------------------------------||
||-------------------------------------7777------------7777---------||
||-6-------------------------------66665555444444776666555544444477-||
||-4-------------------------------4444----222222554444----22222255-||


Riff E (1:10)
 Rhythm Left & Right
||---------------------------------------------|
||---------------------------------------------|
||---------------------------------------------|
||---------------------------------------------|
||-4--6----6--6--7----7--4--6----6--6--7----7--|
||-2--4----4--4--5----5--2--4----4--4--5----5--|



|------------------------------------------------||
|------------------------------------------------||
|------------------------------------------------||
|-4--6----6--6--7----7--7---6---4---7---6---4----||
|-2--4----4--4--5----5--5---4---2---5---4---2----||
|------------------------------------------------||


Riff F (1:14)
||----------------------------------------------|
||*---------------------------------------------|
||----------------------------------------------|
||----------------------------------------------|
||*-6--6----4--6--6----6--x--6----4--6--6----6--|
||--4--4----2--4--4----4--x--4----2--4--4----4--|



|-----------------------------------------------||
|----------------------------------------------*||
|-----------------------------------------------||
|-7--7----6--7--7----7--x--7----7--7--6----4----||
|-5--5----4--5--5----5--x--5----5--5--4----2---*||
|-----------------------------------------------||


Riff G (1:23)
||-------------------------------------------|
||*------------------------------------------|
||-------------------------------------------|
||-------------------------------------------|
||*-6--------6---4---6-----6----4--6---------|
||--4--4444444---2---4-----4----2--4--444444-|



|----------------------------------------------||
|---------------------------------------------*||
|----------------------------------------------||
|-7--------7---6---7-----7----7--7---6---4-----||
|-5--5555555---4---5-----5----5--5---4---2----*||
|----------------------------------------------||


Riff D (1:31)
 Rhythm Left
||------------------------------------------------------------------||
||------------------------------------------------------------------||
||------------------------------------------------------------------||
||-----7777------------7777------------7777------------7777---------||
||-6666555544444477666655554444447766665555444444776666555544444477-||
||-4444----222222554444----222222554444----222222554444----22222255-||
|                                                                    |
|Rhythm Right                                                        |
||------------------------------------------------------------------||
||------------------------------------------------------------------||
||----REST----------------------------------------------------------||
||---------------------7777------------7777------------7777---------||
||-6---------------666655554444447766665555444444776666555544444477-||
||-4---------------4444----222222554444----222222554444----22222255-||


Riff A (1:36)
 Rhythm Left & Right
||---------------------------------------|
||---------------------------------------|
||---------------------------------------|
||---------------------------------------|
||-6------6----6--6--6----7----6----2----|
||-4------4----4--4--4----5----4----0----|



|-----------------------------------------|
|-----------------------------------------|
|-----------------------------------------|
|-----------------------------------------|
|-4----4----4----7------7----7-/9-\7-\4---|
|-2----2----2----5------5----5-/7-\5-\2---|


 Lead Left & Right
|---------------------------------------|
|---------------------------------------|
|--REST---------------------------------|
|---------------------------------------|
|---------------------------------------|
|---------------------------------------|
|                                       |
|Rhythm Left & Right                    |
|---------------------------------------|
|---------------------------------------|
|---------------------------------------|
|---------------------------------------|
|-6------6----6--6--6----7----6----2----|
|-4------4----4--4--4----5----4----0----|



|-----------------------------------------|
|-----------------------------------------|
|-----------------------------------------|
|-----------------------14---14/16\14-----|
|-----------------------12---12/14\12-----|
|-----------------------------------------|
|                                         |
|                                         |
|-----------------------------------------|
|-----------------------------------------|
|-----------------------------------------|
|-----------------------------------------|
|-4----4----4----7------7----7-/9-\7-\4---|
|-2----2----2----5------5----5-/7-\5-\2---|



|---------------------------------------|
|---------------------------------------|
|---------------------------------------|
|-13-----13---13-13-13---14---13---9----|
|-11-----11---11-11-11---12---11---7----|
|---------------------------------------|
|                                       |
|                                       |
|---------------------------------------|
|---------------------------------------|
|---------------------------------------|
|---------------------------------------|
|-6------6----6--6--6----7----6----2----|
|-4------4----4--4--4----5----4----0----|



|-----------------------------------------|
|-----------------------------------------|
|-----------------------------------------|
|-11---11---11---14-----14---14/16\14-----|
|-9----9----9----12-----12---12/14\12-----|
|-----------------------------------------|
|                                         |
|                                         |
|-----------------------------------------|
|-----------------------------------------|
|-----------------------------------------|
|-----------------------------------------|
|-4----4----4----7------7----7-/9-\7-\4---|
|-2----2----2----5------5----5-/7-\5-\2---|



|-------------------------------------------------------------|
|-------------------------------------------------------------|
|-------------------------------------------------------------|
|-13-----13---13-13-13---14---13---9----11---11---11---14-----|
|-11-----11---11-11-11---12---11---7----9----9----9----12-----|
|-------------------------------------------------------------|
|                                                             |
|                                                             |
|-------------------------------------------------------------|
|-------------------------------------------------------------|
|-------------------------------------------------------------|
|-------------------------------------------------------------|
|-6------6----6--6--6----7----6----2----4----4----4----7------|
|-4------4----4--4--4----5----4----0----2----2----2----5------|


Riff B (1:53)
 Rhythm Left & Right
||----------------------------------------------------------------------------||
||*--------------------------------------------------------------------------*||
||----------------------------------------------------------------------------||
||----------------------------------------------------------------------------||
||*-------------------------5555----------------------7----6--7--9----7--4---*||
||--444444444444444444444444----7--5--44444444444444445----4--5--7----5--2----||
                                                           .  .       .  .

Riff E (2:02)
||---------------------------------------------|
||---------------------------------------------|
||---------------------------------------------|
||---------------------------------------------|
||-4--6----6--6--7----7--4--6----6--6--7----7--|
||-2--4----4--4--5----5--2--4----4--4--5----5--|



|---------------------------------------------------||
|---------------------------------------------------||
|---------------------------------------------------||
|-4--6----6--6--7----7--7---6---4---7---6---4-------||
|-2--4----4--4--5----5--5---4---2---5---4---2---6---||
|-----------------------------------------------4---||
Добавлено: 27.01.2014
Другие материалы по этой песне:
  • Аккорды и текст

Страница создана 27.01.2014
http://primanota.ru/municipal-waste/the-inebriator-chords.htm
Привет, Гость.
Предлагаем пройти революционный курс по гитаре.
Подарок от PrimaNota.Ru, забирай!