PrimaNota.ru - самый крупный в мире бесплатный архив песенных текстов, аккордов, табулатур и нот


Municipal Waste - Trapped In The Sites - таба, видео

Регистрация Запомнить меня
Войти через:  Facebook Google Twitter Vk Yandex Mail.ru

Municipal Waste - Trapped In The Sites - таба, видео

Печатать
Просмотров: 72
Municipal Waste - Trapped In The Sites
Toxic Waste (Split w/ Toxic Holocaust) (2012)
Tabbed by ruker
Standard Tuning EADGBE

-------------
Key:
-------------
.  Palm Mute
() Tied Note
-------------


Intro (0:00)
 Both Guitars
||--------------||
||--------------||
||--------------||
||-8--10-8--5---||
||-6--8--6--3---||
||--------------||


Verse (0:01)
||------------------------------------------------------|
||*-----------------------------------------------------|
||---------8--7-----------------------------------------|
||----------------------8--7---------8--7--8--10-8--5---|
||*-5--5-5-------5--5-5-------5--5-5-6--5--6--8--6--3---|
||------------------------------------------------------|
    .  . .       .  . .       .  . .
                                                   4x
|----------------------------------------------------||
|---------------------------------------------------*||
|--------8--7----------------------------------------||
|---------------------8--7---------8--7--10---8------||
|-5--5-5-------5--5-5-------5--5-5-6--5--8----6-----*||
|----------------------------------------------------||
  .  . .       .  . .       .  . .

Chorus (0:21)
||--------------------------------------------------------------------------------------------||
||*------------------------------------------------------------------------------------------*||
||--------------------------------------------------------------------------------------------||
||--5----7--8--7----7--8--7----7--7--7--7--7--7--5----7--8--7----7--8---10---10---8----8------||
||*-3----5--6--5----5--6--5----5--5--5--5--5--5--3----5--6--5----5--6---8----8----6----6-----*||
||--------------------------------------------------------------------------------------------||
         .  .       .  .       .  .  .  .  .  .       .  .       .  .

Verse (0:32)
||------------------------------------------------------|
||*-----------------------------------------------------|
||---------8--7-----------------------------------------|
||----------------------8--7---------8--7--8--10-8--5---|
||*-5--5-5-------5--5-5-------5--5-5-6--5--6--8--6--3---|
||------------------------------------------------------|
    .  . .       .  . .       .  . .
                                                   4x
|----------------------------------------------------||
|---------------------------------------------------*||
|--------8--7----------------------------------------||
|---------------------8--7---------8--7--10---8------||
|-5--5-5-------5--5-5-------5--5-5-6--5--8----6-----*||
|----------------------------------------------------||
  .  . .       .  . .       .  . .

Chorus (0:52)
||--------------------------------------------------------------------------------------------|
||*------------------------------------------------------------------------------------------*|
||--------------------------------------------------------------------------------------------|
||--5----7--8--7----7--8--7----7--7--7--7--7--7--5----7--8--7----7--8---10---10---8----8------|
||*-3----5--6--5----5--6--5----5--5--5--5--5--5--3----5--6--5----5--6---8----8----6----6-----*|
||--------------------------------------------------------------------------------------------|
         .  .       .  .       .  .  .  .  .  .       .  .       .  .

|--------------------------------------------------------------------------------------------||
|*------------------------------------------------------------------------------------------*||
|--------------------------------------------------------------------------------------------||
|--------------------------------------------------------------------------------------------||
|*-5----7--8--7----7--8--7----7--7--7--7--7--7--5----7--8--7----7--8---10---10---8----8-----*||
|--3----5--6--5----5--6--5----5--5--5--5--5--5--3----5--6--5----5--6---8----8----6----6------||
        .  .       .  .       .  .  .  .  .  .       .  .       .  .

Pre-Bridge (1:13)
 Left Guitar
||--------------------------------------------------|
||--------------------------------------------------|
||--------------------------------------------------|
||----------10-10-10--------------------------------|
||-7--7--7--8--8--8--7--7--7--7--7--7--7--7--7--7---|
||-5--5--5-----------5--5--5--5--5--5--5--5--5--5---|
|                                                   |
|Right Guitar                                       |
||--------------------------------------------------|
||--------------------------------------------------|
||--------------------------------------------------|
||--------------------------------------------------|
||-7------------------------------------------------|
||-5------------------------------------------------|


|--------------------------------------------------|
|--------------------------------------------------|
|--------------------------------------------------|
|-8--8--8--7--7--7---------------------------------|
|-6--6--6--5--5--5--7--7--7--7--7--7--7--7--7--7---|
|-------------------5--5--5--5--5--5--5--5--5--5---|
|                                                  |
|                                                  |
|--------------------------------------------------|
|--------------------------------------------------|
|--------------------------------------------------|
|--------------------------------------------------|
|-(7)----------------------------------------------|
|-(5)----------------------------------------------|


|--------------------------------------------------|
|--------------------------------------------------|
|--------------------------------------------------|
|----------10-10-10--------------------------------|
|-7--7--7--8--8--8--7--7--7--7--7--7--7--7--7--7---|
|-5--5--5-----------5--5--5--5--5--5--5--5--5--5---|
|                                                  |
|                                                  |
|--------------------------------------------------|
|--------------------------------------------------|
|--------------------------------------------------|
|----------10-10-10--------------------------------|
|-7--7--7--8--8--8--7--7--7--7--7--7--7--7--7--7---|
|-5--5--5-----------5--5--5--5--5--5--5--5--5--5---|


|--------------------------------------------------||
|--------------------------------------------------||
|--------------------------------------------------||
|-8--8--8--7--7--7---------------------------------||
|-6--6--6--5--5--5--7--7--7--7--7--7--7--7--7--7---||
|-------------------5--5--5--5--5--5--5--5--5--5---||
|                                                   |
|                                                   |
|--------------------------------------------------||
|--------------------------------------------------||
|--------------------------------------------------||
|-8--8--8--7--7--7---------------------------------||
|-6--6--6--5--5--5--7--7--7--7--7--7--7--7--7--7---||
|-------------------5--5--5--5--5--5--5--5--5--5---||


Bridge (1:25)
 Both Guitars
||---------------------------------------------------|
||*--------------------------------------------------|
||---------------------------------------------------|
||-----------10-10-10--------------------------------|
||*-7--7--7--8--8--8--7--7--7--7--7--7--7--7--7--7---|
||--5--5--5-----------5--5--5--5--5--5--5--5--5--5---|


|---------------------------------------------------||
|--------------------------------------------------*||
|---------------------------------------------------||
|-8--8--8--7--7--7----------------------------------||
|-6--6--6--5--5--5--7--7--7--7--7--7--7--7--7--7---*||
|-------------------5--5--5--5--5--5--5--5--5--5----||


Outro (1:36)
||---------------------------------------------------|
||---------------------------------------------------|
||---------------------------------------------------|
||----------10-10-10---------------------------------|
||-7--7--7--8--8--8--7--7--7--7--7--7--7--7--7--7-7--|
||-5--5--5-----------5--5--5--5--5--5--5--5--5--5-5--|
   .  .  .  .  .  .  .  .  .  .  .  .  .  .  .  . .

|---------------------------------------------------|
|---------------------------------------------------|
|---------------------------------------------------|
|-8--8--8--7--7--7----------------------------------|
|-6--6--6--5--5--5--7--7--7--7--7--7--7--7--7--7-7--|
|-------------------5--5--5--5--5--5--5--5--5--5-5--|
  .  .  .  .  .  .  .  .  .  .  .  .  .  .  .  . .

|---------------------------------------------------|
|---------------------------------------------------|
|---------------------------------------------------|
|----------10-10-10---------------------------------|
|-7--7--7--8--8--8--7--7--7--7--7--7--7--7--7--7-7--|
|-5--5--5-----------5--5--5--5--5--5--5--5--5--5-5--|
  .  .  .  .  .  .  .  .  .  .  .  .  .  .  .  . .

|-----------------------------------------||
|-----------------------------------------||
|-----------------------------------------||
|-8--8--8--7--7--7------------------------||
|-6--6--6--5--5--5--7--7--7--7--7--7--7---||
|-------------------5--5--5--5--5--5--5---||
  .  .  .  .  .  .  .  .  
Добавлено: 01.08.2013
Другие материалы по этой песне:

Страница создана 31.07.2013
http://primanota.ru/municipal-waste/trapped-in-the-sites-chords.htm
Привет, Гость.
Предлагаем пройти революционный курс по гитаре.
Подарок от PrimaNota.Ru, забирай!