PrimaNota.ru - самый крупный в мире бесплатный архив песенных текстов, аккордов, табулатур и нот


Municipal Waste - Residential Disaster - таба, видео

Регистрация Запомнить меня
Войти через:  Facebook Google Twitter Vk Yandex Mail.ru

Municipal Waste - Residential Disaster - таба, видео

Печатать
Просмотров: 114
Municipal Waste - Residential Disaster
The Fatal Feast: Waste In Space (2012)
Tabbed by ruker
Standard Tuning EADGBE

--------------
Key:
--------------
.  Palm Mute
x  Dead Note
h  Hammer-on
p  Pull-off
ph Pinch Harmonic
pb Pre-bend
br Bend & Release
/  Slide Up
\  Slide Down
--------------


Pre-Chorus (0:00)
 Rhythm Guitars (Left & Right)
||-------------------------------------------------------------------|
||*------------------------------------------------------------------|
||----------------------------------8-\7-/8---8-8-8-10\8-\7-8-\7-\3--|
||--5--3--5-------------------------x--x--x---x-x-x-x--x--x-x--x--x--|
||*-3--1--3---3-33333-3-33333-3-33336-\5-/3---6-6-6-8-\6-\5-6-\5-\1--|
||-------------------------------------------------------------------|
              . ..... . ..... . ....

|-------------------------------------------------------------------||
|------------------------------------------------------------------*||
|---------------------------------8-\7-/8---8-8-8-10\8-\7-8-\7-/8---||
|-5--3--5-------------------------x--x--x---x-x-x-x--x--x-x--x--x---||
|-3--1--3---3-33333-3-33333-3-33336-\5-/3---6-6-6-8-\6-\5-6-\5-/6--*||
|-------------------------------------------------------------------||
            . ..... . ..... . ....

Chorus (0:20)
||--------------------------------------------------------------|
||--------------------------------------------------------------|
||--------------------------------------------------------------|
||-5--3--5-------5--3--5-8---8---5--3--5-------5--3--5-8--7--3--|
||-3--1--3-------3--1--3-6---6---3--1--3-------3--1--3-6--5--1--|
||--------------------------------------------------------------|


|--------------------------------------------------------------||
|--------------------------------------------------------------||
|-----------5--------------------------------------------------||
|-5--3--5---ph--5--3--5-8---8---5--3--5-------5--3--5-8--7--3--||
|-3--1--3-------3--1--3-6---6---3--1--3-------3--1--3-6--5--1--||
|--------------------------------------------------------------||


Verse A (0:30)                                                          3x
||------------------------------------------------------------------------|
||*----------------------------------------------------------------------*|
||------------------------------------------------------------------------|
||--5-------8--7--3-5-------8--10-8-7-------8--7--3-5-------5-------------|
||*-3-3-33336--5--1-3-3-33336--8--6-5-5-55556--5--1-3-3-33333-6p3h6p3h6--*|
||------------------------------------------------------------------------|
      . ....          . ....          . ....          . ....

|-------------------------------------------------------------------||
|-------------------------------------------------------------------||
|-------------------------------------------------------------------||
|-5-------8--7--3-5-------8--10-8-7-------8--7--3-5-------5---------||
|-3-3-33336--5--1-3-3-33336--8--6-5-5-55556--5--1-3-3-33333-3-3333--||
|-------------------------------------------------------------------||
    . ....          . ....          . ....          . ....  . ....

Pre-Bridge (0:49)
||------------------------------------------------------------------------|
||------------------------------------------------------------------------|
||------------------------------------------------------------------------|
||-5-5---5-13-13---13-8-8---8-8-8---8-10-10---10-3-3---3-5-------5--------|
||-3-3---3-11-11---11-6-6---6-6-6---6-8--8----8--1-1---1-3-3-33333-3-3333-|
||------------------------------------------------------------------------|
                                                           . ..... . ....

|---------------------------------------------------------------||
|---------------------------------------------------------------||
|---------------------------------------------------------------||
|-5-5---5-13-13---13-8-8---8-8-8---8-10-10---10-3-3---3-5-------||
|-3-3---3-11-11---11-6-6---6-6-6---6-8--8----8--1-1---1-3-------||
|---------------------------------------------------------------||


Bridge (0:59)                        3x
||-------------------------------------|-----------------------------------|
||*-----------------------------------*|-----------------------------------|
||------------5-----6------------------|-----------------------------------|
||--5-----------------------11\6-/8----|-----------------------------------|
||*-3-3-33333---333---33333-9-\4-/6---*|-6-------6-------3-------6--6--6---|
||-------------------------------------|-4-4-44444-4-44441-1-11114--4--4---|
      . .....   ...   .....                . ..... . ....  . ....
                                    3x
|-------------------------------------|-----------------------------------||
|*-----------------------------------*|-----------------------------------||
|------------5-----6------------------|-----------------------------------||
|--5-----------------------11\6-/8----|-----------------------------------||
|*-3-3-33333---333---33333-9-\4-/6---*|-6-------6-------3-------3--5--6---||
|-------------------------------------|-4-4-44444-4-44441-1-11111--3--4---||
     . .....   ...   .....                . ..... . ....  . .....  .  .

Pre-Verse (1:19)
||------------------------------------------||
||------------------------------------------||
||------------------------------------------||
||---------------------------------5--------||
||-5--------------5-6-5------------3-6-5-6--||
||-3--------------3-4-3--------------4-3-4--||
                  . .              . . . .

Verse B (1:24)                      4x
||------------------------------------||
||*----------------------------------*||
||------------------------------------||
||--------------------------5---------||
||*-5---6-5-8-6-5-6-5---6-5-3-6-5-6--*||
||--3---4-3-6-4-3-4-3---4-3---4-3-4---||
        . . . . . .     . . . . . .

Verse C (1:34)
||--------------------------------------------------------------------|
||*------------------------------------------------------------------*|
||--------------------------------------------------------------------|
||--5-----5-------------5---5-3-----5-----5-------3---5---8---7-------|
||*-3-3-3-3-3-3-3-3-3-3-3-3-3-1-----3-3-3-3-3-3-3-1-1-3-3-6-6-5------*|
||--------------------------------------------------------------------|
      . .   . . . . . .   .           . .   . . .   .   .   .

|--------------------------------------------------------------------||
|*------------------------------------------------------------------*||
|--------------------------------------------------------------------||
|--8-----8-------------8---8-6-----8-----8-------6---8---11--10------||
|*-6-6-6-6-6-6-6-6-6-6-6-6-6-4-----6-6-6-6-6-6-6-4-4-6-6-9-9-8------*||
|--------------------------------------------------------------------||
     . .   . . . . . .   .           . .   . . .   .   .   .

Verse A (1:55)
||----------------------------------------------------------------------|
||----------------------------------------------------------------------|
||----------------------------------------------------------------------|
||-5-------8--7--3-5-------8--10-8-7-------8--7--3-5-------5------------|
||-3-3-33336--5--1-3-3-33336--8--6-5-5-55556--5--1-3-3-33333-6p3h6p3h6--|
||----------------------------------------------------------------------|
      . ....          . ....          . ....          . ....

|-------------------------------------------------------------------||
|-------------------------------------------------------------------||
|-------------------------------------------------------------------||
|-5-------8--7--3-5-------8--10-8-7-------8--7--3-5-------5---------||
|-3-3-33336--5--1-3-3-33336--8--6-5-5-55556--5--1-3-3-33333-3-3333--||
|-------------------------------------------------------------------||
    . ....          . ....          . ....          . ....  . ....

Guitar Solo - Lead (2:05)
 Lead Guitar
||----15h18p15----------15h18p15----------15h18p15----------15h18p15----------15h18p15--|
||-18---------18p15h1818--------18p15h1818--------18p15h1818--------18p15h1818----------|
||--------------------------------------------------------------------------------------|
||--------------------------------------------------------------------------------------|
||--------------------------------------------------------------------------------------|
||--------------------------------------------------------------------------------------|


|--------------------------------------------------------------------------------------|
|-18-15-15h18-15-----------------------------------------------------------------------|
|----------------17-15-17pb---17br-15-17---15-17-17br---15----15-------------15--15-17-|
|----------------------------------------------------------17------17-15-17------------|
|--------------------------------------------------------------------------------------|
|--------------------------------------------------------------------------------------|


|--------------------------------------------------||
|------15-16-18--16--15-16--15---------------------||
|-15----------------------------17p1517------------||
|--------------------------------------------------||
|--------------------------------------------------||
|--------------------------------------------------||


Guitar Solo - Rhythm (2:05)
 Rhythm Guitars (Left & Right)
||--------------------------------------------------------------------------||
||*------------------------------------------------------------------------*||
||--------------------------------------------------------------------------||
||--5-5---5-13-13---13-8-8---8-8-8---8-10-10---10-3-3---3-5-------5---------||
||*-3-3---3-11-11---11-6-6---6-6-6---6-8--8----8--1-1---1-3-3-33333-3-3333-*||
||--------------------------------------------------------------------------||
                                                            . ..... . ....

Pre-Chorus (2:14)
 Rhythm Guitars (Left & Right)
||-------------------------------------------------------------------|
||*------------------------------------------------------------------|
||----------------------------------8-\7-/8---8-8-8-10\8-\7-8-\7-\3--|
||--5--3--5-------------------------x--x--x---x-x-x-x--x--x-x--x--x--|
||*-3--1--3---3-33333-3-33333-3-33336-\5-/3---6-6-6-8-\6-\5-6-\5-\1--|
||-------------------------------------------------------------------|
              . ..... . ..... . ....

|-------------------------------------------------------------------||
|------------------------------------------------------------------*||
|---------------------------------8-\7-/8---8-8-8-10\8-\7-8-\7-/8---||
|-5--3--5-------------------------x--x--x---x-x-x-x--x--x-x--x--x---||
|-3--1--3---3-33333-3-33333-3-33336-\5-/3---6-6-6-8-\6-\5-6-\5-/6--*||
|-------------------------------------------------------------------||
            . ..... . ..... . ....

Chorus (2:34)
||--------------------------------------------------------------|
||--------------------------------------------------------------|
||--------------------------------------------------------------|
||-5--3--5-------5--3--5-8---8---5--3--5-------5--3--5-8--7--3--|
||-3--1--3-------3--1--3-6---6---3--1--3-------3--1--3-6--5--1--|
||--------------------------------------------------------------|


|-------------------------------------------------------------------||
|-------------------------------------------------------------------||
|-----------5-------------------------------------------------------||
|-5--3--5---ph--5--3--5-8---8---5--3--5-------5--3--5--8--7--3--5---||
|-3--1--3-------3--1--3-6---6---3--1--3-------3--1--3--6--5--1--3---||
|-------------------------------------------------------------------||





Hidden "Track" (3:54)
||-------------------||
||-------------------||
||-------------------||
||-------------------||
||--------------3-2--||
||--------------1-0--||
Добавлено: 07.07.2013
Другие материалы по этой песне:

Страница создана 07.07.2013
http://primanota.ru/municipal-waste/residential-disaster-chords.htm
Привет, Гость.
Предлагаем пройти революционный курс по гитаре.
Подарок от PrimaNota.Ru, забирай!