PrimaNota.ru - самый крупный в мире бесплатный архив песенных текстов, аккордов, табулатур и нот


Municipal Waste - Youre Cut Off - таба, видео

Регистрация Запомнить меня
Войти через:  Facebook Google Twitter Vk Yandex Mail.ru

Municipal Waste - Youre Cut Off - таба, видео

Печатать
Просмотров: 411
Уроки эстрадного вокала в Санкт-Петербурге
Municipal Waste - You're Cut Off
The Fatal Feast: Waste In Space (2012)
Tabbed by ruker
Standard Tuning EADGBE

--------------
Key:
--------------
.   Palm Mute
/   Slide Up
\   Slide Down
--------------


Chorus (0:00)
 Both Guitars                      4x
||-----------------------------------||
||*---------------------------------*||
||-----------------------------------||
||--2-----7/9---10--2-------5\4-5----||
||*-0-0-0-5/7-0-8-0-0-0-0-0-3\2-3---*||
||-----------------------------------||
      . .     .   .   . . .

Verse (0:09)
||-------------------------------------------------------------||
||*-----------------------------------------------------------*||
||-------------------------------------------------------------||
||--2----------10-9----------5--3----------------------5--3----||
||*-0--000000008--7--777777773--1--111111111111111111113--1---*||
||-------------------------------------------------------------||
       ........      ........      ....................

Chorus (0:18)                      4x
||-----------------------------------||
||*---------------------------------*||
||-----------------------------------||
||--2-----7/9---10--2-------5\4-5----||
||*-0-0-0-5/7-0-8-0-0-0-0-0-3\2-3---*||
||-----------------------------------||
      . .     .   .   . . .

Verse (0:28)
||-----------------------------------------------------------|
||-----------------------------------------------------------|
||-----------------------------------------------------------|
||-2----------10-9----------5--3----------------------5--3---|
||-0--000000008--7--777777773--1--111111111111111111113--1---|
||-----------------------------------------------------------|
      ........      ........      ....................

|-----------------------------------------------------------||
|-----------------------------------------------------------||
|-----------------------------------------------------------||
|-2----------10-9----------5--3-----------------------------||
|-0--000000008--7--777777773--1--111111111111111111113--3---||
|----------------------------------------------------1--1---||
     ........      ........      ....................

Pre-Bridge (0:37)
 Left Guitar
||----------------------------------------------------------------------------------||
||----------------------------------------------------------------------------------||
||----------------------------------------------------------------------------------||
||-------------------------7---9---10--------3---2--------7---9---10--------3---2---||
||-2-----------------2-----5---7---8---2-----1---0--2-----5---7---8---2-----1---0---||
||-0-----------------0-0-0---0---0---0-0-0-0---0----0-0-0---0---0---0-0-0-0---0-----||
|                      . .   .   .   .   . .   .      . .   .   .   .   . .   .      |
|Right Guitar                                                                        |
||----------------------------------------------------------------------------------||
||----------------------------------------------------------------------------------||
||----------------------------------------------------------------------------------||
||--------------------------------------------------------------------------3---2---||
||-2------------------------------------------------------------------------1---0---||
||-0----------------------------------------------------------------------0---0-----||
                                                                          .   .

Bridge (0:44)
 Both Guitars                      4x
||-----------------------------------||
||*---------------------------------*||
||-----------------------------------||
||--------7---9---10--------3---2----||
||*-2-----5---7---8---2-----1---0---*||
||--0-0-0---0---0---0-0-0-0---0------||
      . .   .   .   .   . .   .

Pre-Chorus (0:53)
||----------------------------------------------------------|
||----------------------------------------------------------|
||----------------------------------------------------------|
||---------------7-7--7-9-9--9-1010-101010---3-3--3-2-2--2--|
||-2-2--2-2-2--2-5-5--5-7-7--7-8-8--8-8-8--0-1-1--1-0-0--0--|
||-0-0--0-0-0--0--------------------------------------------|


|------------------------------------------------------------||
|------------------------------------------------------------||
|------------------------------------------------------------||
|---------------7-7--7-9-9--9-1010-101010---3-3-3-3-3-3-3-3--||
|-2-2--2-2-2--2-5-5--5-7-7--7-8-8--8-8-8--0-1-1-1-1-1-1-1-1--||
|-0-0--0-0-0--0----------------------------------------------||


Chorus (1:02)                      4x
||-----------------------------------|-----||
||*---------------------------------*|-----||
||-----------------------------------|-----||
||--2-----7/9---10--2-------5\4-5----|-2---||
||*-0-0-0-5/7-0-8-0-0-0-0-0-3\2-3---*|-0---||
||-----------------------------------|-----||
      . .     .   .   . . .
Добавлено: 28.08.2013
Другие материалы по этой песне:

Страница создана 28.08.2013
http://primanota.ru/municipal-waste/youre-cut-off-chords.htm
Привет, Гость.
Предлагаем пройти революционный курс по гитаре.
Подарок от PrimaNota.Ru, забирай!