PrimaNota.ru - самый крупный в мире бесплатный архив песенных текстов, аккордов, табулатур и нот


Municipal Waste - Wrong Answer - таба, бас-таба, видео

Регистрация Запомнить меня
Войти через:  Facebook Google Twitter Vk Yandex Mail.ru

Municipal Waste - Wrong Answer - таба, бас-таба, видео

Печатать
Просмотров: 189
MUNICIPAL WASTE - WRONG ANSWER
MASSIVE AGGRESSIVE (2009)

Key: 
 ...    palm mute
 s      slide
 tr     trill
 [#]    pinch harmonic


      Intro                               (0:00-0:17)
E---------------------------------------------------| 
B---------------------------------------------------|
G---------------------------------------------------| Play
D------9-----10-7----10-----9-----10-7-45-4---------|  3x
A--000-7-000-8--5-00-8--000-7-000-8--5-23-2---------|
E--000---000------00----000---000-------------------|
   ...   ...      ..    ...   ...      ..
                                          (0:17-0:22)
E---------------------------------------------------|
B---------------------------------------------------|
G---------------------------------------------------|
D------9-----10-7----10-----9-----10-7-45-----------|
A--000-7-000-8--5-00-8--000-7-000-8--5-23-[2]-------|
E--000---000------00----000---000-------------------|
   ...   ...      ..    ...   ...      ..
                                          (0:23-0:28)
E---------------------------------------------------| 
B---------------------------------------------------|
G---------------------------------------------------| 
D------9-----10-7----10-----9-----10-7-45-4---------|  
A--000-7-000-8--5-00-8--000-7-000-8--5-23-2---------|
E--000---000------00----000---000-------------------|
   ...   ...      ..    ...   ...      ..
                                          (0:28-0:33)
E---------------------------------------------------| 
B---------------------------------------------------|
G---------------------------------------------------| 
D------9-----10-7----10-----9-----10-7-45-----------|  
A--000-7-000-8--5-00-8--000-7-000-8--5-23-----------|
E--000---000------00----000---000-------------------|
   ...   ...      ..    ...   ...      ..
                                          (0:33-0:35)
E---------------------------------------------------|
B---------------------------------------------------|
G---------------------------------------------------|
D--4--LET-------------------------------------------|
A--2------RING--------------------------------------|
E---------------------------------------------------|


Guitar I                                  (0:36-0:38)
E---------------------------------------------------|
B---------------------------------------------------|
G---------------------------------------------------|
D--5s4-5s4-------5s4--------------------------------|
A--3s2-3s2-------3s2---[2]tr3-----------------------|
E----------0-000-----0------------------------------|
           . ...     .
Guitar II
E---------------------------------------------------|
B---------------------------------------------------|
G---------------------------------------------------|
D--5------------------------------------------------|
A--3------------------------------------------------|
E---------------------------------------------------|

                                          (0:38-0:40)
E---------------------------------------------------|
B---------------------------------------------------|
G---------------------------------------------------|
D--5s4-5s4-------9s10---5s7-------------------------|
A--3s2-3s2-------7s8----3s5-------------------------|
E----------0-000------0-----0-----------------------|
           . ...      .     .

      Verse                               (0:40-1:02)
E---------------------------------------------------|
B---------------------------------------------------|
G---------------------------------------------------| these
D--5s4-5s4-------5s4--------------------------------|
A--3s2-3s2-------3s2---[2]tr3-----------------------|  two
E----------0-000-----0------------------------------|
           . ...     .

E---------------------------------------------------|  bars
B---------------------------------------------------|
G---------------------------------------------------|   5x
D--5s4-5s4-------9s10---5s7-------------------------|
A--3s2-3s2-------7s8----3s5-------------------------|
E----------0-000------0-----0-----------------------|
           . ...      .     .
                                          (1:03-1:04)
E---------------------------------------------------|
B---------------------------------------------------|
G---------------------------------------------------|
D--9s10---5s7---------------------------------------|
A--7s8----3s5----------8877-------------------------|
E-------0-----0----7788-----------------------------|
        .     .    ........

      Chorus                              (1:05-1:21)
E---------------------------------------------------|
B---------------------------------------------------|
G---------------------------------------------------|
D--99-99------99-99-7-91010-1010------1012-121210-10|  play
A--77-77-0000-77-77-5-78-8--8-8--8888-8-10-10108--8-|
E---------------------------------------------------|  these
         ....                    ....

E---------------------------------------------------|  two
B---------------------------------------------------|  
G---------------------------------------------------|  bars
D--99-99------99-99-7-91010-1010------10tr12-8tr10--|  
A--77-77-0000-77-77-5-78-8--8-8--8888---------------|   2x
E---------------------------------------------------|
         ....                    ....
                                          (1:22-1:34)
E---------------------------------------------------|
B---------------------------------------------------|
G---------------------------------------------------|
D--9---7-109-9--------------------------------------| these
A--7-105-8-7-7--------------------------------------|
E----8----------00000000000000000-------------------|  two
                .................

E---------------------------------------------------|  bars
B---------------------------------------------------|  
G---------------------------------------------------|  3x  
D--9---7--------------------------------------------|
A--7-105-5-3-3--------------------------------------|
E----8---3-1-1--11111111111111111-------------------|
                .................
                                          (1:34-1:36)
E---------------------------------------------------|
B---------------------------------------------------|
G---------------------------------------------------|
D--9---7-109-9--------------------------------------|
A--7-105-8-7-7--------------------------------------|
E----8----------00000000000000000-------------------|
                .................
                                          (1:37-1:41)
E---------------------------------------------------|
B---------------------------------------------------|
G---------------------------------------------------|
D--9----7-------------------------------------------|
A--7-10-5-5-3-3333333-3-----------------------------|
E----8----3-1-1111111-1-----------------------------|
              .......

    Intro Riff                            (1:42-1:47)
E---------------------------------------------------| 
B---------------------------------------------------|
G---------------------------------------------------|
D------9-----10-7----10-----9-----10-7-45-4---------|
A--000-7-000-8--5-00-8--000-7-000-8--5-23-2---------|
E--000---000------00----000---000-------------------|
   ...   ...      ..    ...   ...      ..
                                          (1:47-1:52)
E---------------------------------------------------|
B---------------------------------------------------|
G---------------------------------------------------|
D------9-----10-7----10-----9-----10-7-45-----------|
A--000-7-000-8--5-00-8--000-7-000-8--5-23-[2]-------|
E--000---000------00----000---000-------------------|
   ...   ...      ..    ...   ...      ..
                                          (1:52-1:57)
E---------------------------------------------------| 
B---------------------------------------------------|
G---------------------------------------------------| 
D------9-----10-7----10-----9-----10-7-45-4---------|  
A--000-7-000-8--5-00-8--000-7-000-8--5-23-2---------|
E--000---000------00----000---000-------------------|
   ...   ...      ..    ...   ...      ..
                                          (1:58-2:02)
E---------------------------------------------------| 
B---------------------------------------------------|
G---------------------------------------------------| 
D------9-----10-7----10-----9-----10-7--------------|  
A--000-7-000-8--5-00-8--000-7-000-8--5--------------|
E--000---000------00----000---000-------------------|
   ...   ...      ..    ...   ...    
  
      Verse                               (2:03-2:12)
E---------------------------------------------------|
B---------------------------------------------------|
G---------------------------------------------------| these
D--5s4-5s4-------5s4--------------------------------|
A--3s2-3s2-------3s2---[2]tr3-----------------------|  two
E----------0-000-----0------------------------------|
           . ...     .

E---------------------------------------------------|  bars
B---------------------------------------------------|
G---------------------------------------------------|   2x
D--5s4-5s4-------9s10---5s7-------------------------|
A--3s2-3s2-------7s8----3s5-------------------------|
E----------0-000------0-----0-----------------------|
           . ...      .     .

      Chorus                              (2:13-2:16)
E---------------------------------------------------|
B---------------------------------------------------|
G---------------------------------------------------|
D--99-99------99-99-7-91010-1010------1012-121210-10|
A--77-77-0000-77-77-5-78-8--8-8--8888-8-10-10108--8-|
E---------------------------------------------------|
         ....                    ....

                                          (2:17-2:20)
E---------------------------------------------------|
B---------------------------------------------------|  
G---------------------------------------------------|
D--99-99------99-99-7-91010-1010------10tr12-8tr10--|  
A--77-77-0000-77-77-5-78-8--8-8--8888---------------|
E---------------------------------------------------|
         ....                    ....

                                          (2:21-2:24)
E---------------------------------------------------|
B---------------------------------------------------|
G---------------------------------------------------|
D--99-99------99-99-7-91010-1010------1012-121210-10|
A--77-77-0000-77-77-5-78-8--8-8--8888-8-10-10108--8-|
E---------------------------------------------------|
         ....                    ....

                                          (2:25-2:29)
E---------------------------------------------------|
B---------------------------------------------------|  
G---------------------------------------------------|
D--99-99------99-99-7-------------------------------|  
A--77-77-0000-77-77-5-7-3-LET-----------------------|
E---------------------0-1-----RING------------------|
         ....

                                          (2:29-2:32)
E---------------------------------------------------|
B---------------------------------------------------|
G---------------------------------------------------|
D-----------9----7-10-------------------------------|
A------8877-7-10-5-8--[7]---------------------------|
E--7788-------8-------------------------------------|
   ........
Добавлено: 28.06.2012
Другие материалы по этой песне:

Страница создана 27.04.2012
http://primanota.ru/municipal-waste/wrong-answer-chords.htm
Привет, Гость.
Предлагаем пройти революционный курс по гитаре.
Подарок от PrimaNota.Ru, забирай!