PrimaNota.ru - самый крупный в мире бесплатный архив песенных текстов, аккордов, табулатур и нот


Municipal Waste - Wolves Of Chernobyl - таба, видео

Регистрация Запомнить меня
Войти через:  Facebook Google Twitter Vk Yandex Mail.ru

Municipal Waste - Wolves Of Chernobyl - таба, видео

Печатать
Просмотров: 109
Municipal Waste - Wolves Of Chernobyl
Massive Aggressive (2009)
Tabbed by ruker
Standard Tuning EADGBE

--------------
Key:
--------------
.  Palm Mute
~  Vibrato
h  Hammer-on
p  Pull-off
ph Pinch Harmonic
b  Bend
br Bend & Release
/  Slide Up
\  Slide Down
--------------


Intro (0:00)
 Rhythm Guitars (Left & Right)
||--------------------------------------------------------------------------------------||
||--------------------------------------------------------------------------------------||
||--------------------------------------------------------------------------------------||
||-2-------10--10--10--9-------8---8---8---7-------5---5---5---3---3---3---3---3---3----||
||-0-0-00008---8---8---7-0-00006---6---6---5-0-00003---3---3---1---1---1---1---1---1----||
||--------------------------------------------------------------------------------------||
     . ....              . ....              . ....                        .   .   .

Riff A (0:05)
||-----------------------------------------------------------------------------------||
||*---------------------------------------------------------------------------------*||
||-----------------------------------------------------------------------------------||
||--5-2----2-10-9----10-5-2----4-13-13----13-8-8----8-8-8----8-3-3----3-10-10---10---||
||*-3-0----0-8--7----8--3-0----2-11-11----11-8-8----8-8-8----8-1-1----1-8--8----8---*||
||-------------------------------------------6-6----6-6-6----6-----------------------||


Riff B (0:14)
||----------------------------------------------------------------------------||
||*--------------------------------------------------------------------------*||
||----------------------------------------------------------------------------||
||--5-2----2----------5-2----2----------------------------5-5----5------------||
||*-3-0----0----0-000-3-0----0----0-000-3-3----3----------3-3----3-5-5----5--*||
||--------------------------------------1-1----1----1-111----------3-3----3---||
                . ...             . ...             . ...

Riff C (0:23)                                                            4x
||-------------------------------------------------------------------------||
||*-----------------------------------------------------------------------*||
||-------------------------------------------------------------------------||
||------------------------------------5-----------5----3-5----6-5-3----5---||
||*-7-----------7----5-7----8-7-------3-33333333333----1-3----4-3-1----3--*||
||--5-55555555555----3-5----6-5-555555-------------------------------------||
      ..........                ......  ..........

Bridge (0:40)
||------------------------------------------||
||------------------------------------------||
||------------------------------------------||
||------------------------------------------||
||-5---7---8---7-------8---10--11--10-------||
||-3---5---6---5-------6---8---9---8--------||


Riff D (0:43)                                                         4x
||----------------------------------------------------------------------||
||*--------------------------------------------------------------------*||
||----------------------------------------------------------------------||
||----------------5---------------4---------------5----5-4-5------------||
||*-4-------5\4---3---------5\4---2---------5\4---3----3-2-3----2------*||
||--2-2-2-2-3\2-2---2-2-2-2-3\2-2---2-2-2-2-3\2-2-----------------3-0---||
      . . .     .   . . . .     .   . . . .     .               . . .

Riff E (1:02)                                                         3x
||----------------------------------------------------------------------|
||*--------------------------------------------------------------------*|
||----------------------------------------------------------------------|
||------------------------------------------------5----5-4-5------------|
||*-4---4---4/5---8-----8---8\7---4-----4---4/5---3----3-2-3----2------*|
||--2-0-2-0-2/3-0-6-0-0-6-0-6\5-0-2-0-0-2-0-2/3-0-----------------3-0---|
      .   .     .   . .   .     .   . .   .     .               . . .

|--------------------------------------------------------------------------------------||
|--------------------------------------------------------------------------------------||
|--------------------------------------------------------------------------------------||
|-----------------------------------------------5----5-4-5----5-4-8----8-7-8----3-2----||
|-4---4---4/5---8-----8---8\7---4-----4---4/5---3----3-2-3----3-2-6----6-5-6--------3--||
|-2-0-2-0-2/3-0-6-0-0-6-0-6\5-0-2-0-0-2-0-2/3-0----------------------------------------||
    .   .     .   . .   .     .   . .   .     .

Riff F1 (1:23)
 Rhythm Guitar Left
||------------------------------------------------------------------------------||
||------------------------------------------------------------------------------||
||------------------------------------------------------------------------------||
||-2-------10--10--10--9-------8---8---8---7-------5---5---5---3---------3-2----||
||-0-0-00008---8---8---7-0-00006---6---6---5-0-00003---3---3---1-11111111----3--||
||------------------------------------------------------------------------------||
|    . ....              . ....              . ....              ........        |
|Rhythm Guitar Right                                                             |
||------------------------------------------------------------------------------||
||------------------------------------------------------------------------------||
||------------------------------------------------------------------------------||
||-2-------10--10--10--9-------8---8---8---7-------5---5---5---3---------3-2----||
||-0-------8---8---8---7-------6---6---6---5-------3---3---3---1-11111111----3--||
||------------------------------------------------------------------------------||
                                                                 ........

Riff F2 (1:27)
 Rhythm Guitars (Left & Right)
||------------------------------------------------------------------------||
||*----------------------------------------------------------------------*||
||------------------------------------------------------------------------||
||--2---------10---10-9---------8----8-7---------5----5-3---------3-2-----||
||*-0-0000000-8----8--7-0000000-6----6-5-0000000-3----3-1-11111111----3--*||
||------------------------------------------------------------------------||
      .......           .......          .......          ........

Riff A (1:36)
||-----------------------------------------------------------------------------------||
||*---------------------------------------------------------------------------------*||
||-----------------------------------------------------------------------------------||
||--5-2----2-10-9----10-5-2----4-13-13----13-8-8----8-8-8----8-3-3----3-10-10---10---||
||*-3-0----0-8--7----8--3-0----2-11-11----11-8-8----8-8-8----8-1-1----1-8--8----8---*||
||-------------------------------------------6-6----6-6-6----6-----------------------||


Guitar Solo (1:45)
 Lead Guitar 1
||--------------------------------------------------------------------------|
||-13-----------------------------------------------------------------------|
||---9~---9~-----9-9912b-------12br----10~---------10h12p10-9~-----------9--|
||--------------------------------------------------------------------------|
||--------------------------------------------------------------------------|
||--------------------------------------------------------------------------|
|                                                                           |
|Lead Guitar 2                                                              |
||--------------------------------------------------------------------------|
||-------------------------------------10~---------10h12p10-8~--------------|
||--------REST--------------------------------------------------------------|
||--------------------------------------------------------------------------|
||--------------------------------------------------------------------------|
||--------------------------------------------------------------------------|
|                                                                           |
|Rhythm Guitars (Left & Right)                                              |
||--------------------------------------------------------------------------|
||--------------------------------------------------------------------------|
||--------------------------------------------------------------------------|
||-5-2----2----------5-2----2----------------------------5-5----5-----------|
||-3-0----0----0-000-3-0----0----0-000-3-3----3----------3-3----3-5-5----5--|
||-------------------------------------1-1----1----1-111----------3-3----3--|
               . ...             . ...             . ...

|-------------12-----------------------------------------------------------||
|-13-12-13-15----15-13-12-15-13-12-----------------------------------------||
|----------------------------------12-12b--12br---10h12p10-9~----9\--------||
|----------------------------------------------------------------ph--------||
|--------------------------------------------------------------------------||
|--------------------------------------------------------------------------||
|                                                                           |
|                                                                           |
|--------------------------------------------------------------------------||
|--------------------------------------------------------------------------||
|----------------------------REST------------------------------------------||
|--------------------------------------------------------------------------||
|--------------------------------------------------------------------------||
|--------------------------------------------------------------------------||
|                                                                           |
|                                                                           |
|--------------------------------------------------------------------------||
|--------------------------------------------------------------------------||
|--------------------------------------------------------------------------||
|-5-2----2----------5-2----2----------------------------5-5----5-----------||
|-3-0----0----0-000-3-0----0----0-000-3-3----3----------3-3----3-5-5----5--||
|-------------------------------------1-1----1----1-111----------3-3----3--||
              . ...             . ...             . ...

Bridge (1:54)
 Rhythm Guitars (Left & Right)
||------------------------------------------||
||------------------------------------------||
||------------------------------------------||
||------------------------------------------||
||-5---7---8---7-------8---10--11--10-------||
||-3---5---6---5-------6---8---9---8--------||


Riff D (1:57)
||----------------------------------------------------------------------||
||*--------------------------------------------------------------------*||
||----------------------------------------------------------------------||
||----------------5---------------4---------------5----5-4-5------------||
||*-4-------5\4---3---------5\4---2---------5\4---3----3-2-3----2------*||
||--2-2-2-2-3\2-2---2-2-2-2-3\2-2---2-2-2-2-3\2-2-----------------3-0---||
      . . .     .   . . . .     .   . . . .     .               . . .

Riff E (2:06)
||----------------------------------------------------------------------||
||*--------------------------------------------------------------------*||
||----------------------------------------------------------------------||
||------------------------------------------------5----5-4-5------------||
||*-4---4---4/5---8-----8---8\7---4-----4---4/5---3----3-2-3----2------*||
||--2-0-2-0-2/3-0-6-0-0-6-0-6\5-0-2-0-0-2-0-2/3-0-----------------3-0---||
      .   .     .   . .   .     .   . .   .     .               . . .

Outro (2:16)
||------------------------------------------------------------------------|
||------------------------------------------------------------------------|
||------------------------------------------------------------------------|
||---------------------------------------------------8----8-7-8-----------|
||-7---7---7/8---11-----11---11\10---7-----7---7/8---6----6-5-6----5------|
||-5-0-5-0-5/6-0-9--0-0-9--0-9-\8--0-5-0-0-5-0-5/6-0-----------------6-5--|
     .   .     .    . .    .       .   . .   .     .               . . .

|----------------------------------------------------------------------------|
|----------------------------------------------------------------------------|
|----------------------------------------------------------------------------|
|---------------------------------------------------8----8-7-8----8-7-11-----|
|-7---7---7/8---11-----11---11\10---7-----7---7/8---6----6-5-6----6-5-9------|
|-5-0-5-0-5/6-0-9--0-0-9--0-9-\8--0-5-0-0-5-0-5/6-0--------------------------|
    .   .     .    . .    .       .   . .   .     .

|-----------------------------------------------||
|-----------------------------------------------||
|-----------------------------------------------||
|-11-10-11----11-10-----------------5-4---------||
|-9--8--9-----9--8--12~-------------3-2-5-4-----||
|---------------------------------------3-2-----||
Добавлено: 13.06.2013
Другие материалы по этой песне:

Страница создана 13.06.2013
http://primanota.ru/municipal-waste/wolves-of-chernobyl-chords.htm
Привет, Гость.
Предлагаем пройти революционный курс по гитаре.
Подарок от PrimaNota.Ru, забирай!