PrimaNota.ru - самый крупный в мире бесплатный архив песенных текстов, аккордов, табулатур и нот


Monkees - Through The Looking Glass - текст песни, бас-таба, видео

Регистрация Запомнить меня
Войти через:  Facebook Google Twitter Vk Yandex Mail.ru

Monkees - Through The Looking Glass - текст песни, бас-таба, видео

Печатать
Просмотров: 45
Уроки эстрадного вокала в Санкт-Петербурге
Tabbed by: 6METAL6BASSIST6
E-mail: petergriffinav@gmail.com

Tuning: 1/4 step down.

0:04

First recorded Version.

G|------------------------------------------------------------------------------------------------|.
D|------------------------------------------------------------------------------------------------|.
A|3-----3-----3-----3-----3-----3-----3-----3-----5-----5-----5-----5-----5-----5-----5-----5-----|.
E|------------------------------------------------------------------------------------------------|.
                                                                                                   . x2
G|------------------------------------------------------------------------------------------------|.
D|3-----3-----3-----3-4-5-6-----6-----6-----6-----------------------------------------------------|.
A|------------------------------------------------3-----3-----3-----3-----3-----3-----3-----3-----|.
E|------------------------------------------------------------------------------------------------|.

0:32

G|------------------------------------------------------------------------------2-----0-----------|
D|------------------------------------5-----------------------------------------------------2-----|
A|3-----3-----3-----3-----3-----3-----------3-----1-----1-----1-----1-----0-----------------------|
E|------------------------------------------------------------------------------------------------|

G|------------------------------------------------------------------------------------------------|
D|0-----0-----0-----0-----------------------3-----6-----------------------5-----------------------|
A|------------------------3-----3-----0-----------------------------------------------------------|
E|------------------------------------------------------------------------------------------------|

0:45

G|------------------------------------------------------------------------------------------------|
D|------------------------------------------------------------------------------------------------|
A|3-----3-----3-----3-----3-----3-----3-----3-----5-----5-----5-----5-----5-----5-----5-----5-----|
E|------------------------------------------------------------------------------------------------|

G|------------------------------------------------------------------------------------------------|
D|3-----3-----3-----3-4-5-6-----6-----6-----6-----------------------------------------------------|
A|------------------------------------------------3-----3-----3-----3-----3-----3-----3-----3-----|
E|------------------------------------------------------------------------------------------------|

G|------------------------------------------------------------------------------------------------|
D|------------------------------------------------------------------------------------------------|
A|------------------------------------------------------------------------------------------------|
E|------------------------------------------------------------------------------------------------|

G|------------------------------------------------------------------------------------------------|
D|------------------------------------------------------------------------------------------------|
A|------------------------------------------------------------------------------------------------|
E|------------------------------------------------------------------------------------------------|

1:11

G|------------------------------------------------------------------------------------------------|
D|------------------------------------------------------------------------------------------------|
A|3-----3-----3-----3-----3-----3-----3-----3-----5-----5-----5-----5-----5-----5-----5-----5-----|
E|------------------------------------------------------------------------------------------------|

G|------------------------------------------------------------------------------------------------|
D|3-----3-----3-----3-4-5-6-----6-----6-----6-----------------------------------------------------|
A|------------------------------------------------3-----3-----3-----3-----3-----3-----3-----3-----|
E|------------------------------------------------------------------------------------------------|

1:26

G|------------------------------------------------------------------------------2-----0-----------|
D|------------------------------------5-----------------------------------------------------2-----|
A|3-----3-----3-----3-----3-----3-----------3-----1-----1-----1-----1-----0-----------------------|
E|------------------------------------------------------------------------------------------------|

G|------------------------------------------------------------------------------------------------|
D|0-----0-----0-----0-----------------------3-----6-----------------------5-----------------------|
A|------------------------3-----3-----0-----------------------------------------------------------|
E|------------------------------------------------------------------------------------------------|

G|------------------------------------------------|
D|------------------------------------------------|
A|------------------------------------------------|
E|------------------------------------------------|

1:41

G|------------------------------------------------------------------------------------------------|
D|------------------------------------------------------------------------------------------------|
A|3-----3-----3-----3-----3-----3-----3-----3-----5-----5-----5-----5-----5-----5-----5-----5-----|
E|------------------------------------------------------------------------------------------------|

G|------------------------------------------------------------------------------------------------|
D|3-----3-----3-----3-4-5-6-----6-----6-----6-----------------------------------------------------|
A|------------------------------------------------3-----3-----3-----3-----3-----3-----3-----3-----|
E|------------------------------------------------------------------------------------------------|

G|------------------------------------------------------------------------------------------------|
D|------------------------------------------------------------------------------------------------|
A|------------------------------------------------------------------------------------------------|
E|------------------------------------------------------------------------------------------------|

2:01

G|------------------------------------------------------------------------------------------------|
D|------------------------------------------------------------------------------------------------|
A|3-----3-----3-----3-----3-----3-----3-----3-----5-----5-----5-----5-----5-----5-----5-----5-----|
E|------------------------------------------------------------------------------------------------|

G|------------------------------------------------------------------------------------------------|
D|3-----3-----3-----3-4-5-6-----6-----6-----6-----------------------------------------------------|
A|------------------------------------------------3-----3-----3-----3-----3-----3-----3-----3-----|
E|------------------------------------------------------------------------------------------------|

G|------------------------------------------------------------------------------------------------|
D|------------------------------------------------------------------------------------------------| x2  to
A|3-----3-----3-----3-----3-----3-----3-----3-----3-----3-----3-----3-----3-----3-----3-----3-----| fadeout.
E|----------------------------------------------3-----------------------------------------------3-|
Добавлено: 04.03.2016
Другие материалы по этой песне:
  • Аккорды и текст

Страница создана 26.12.2013
http://primanota.ru/monkees/through-the-looking-glass-chords.htm
Привет, Гость.
Предлагаем пройти революционный курс по гитаре.
Подарок от PrimaNota.Ru, забирай!