PrimaNota.ru - самый крупный в мире бесплатный архив песенных текстов, аккордов, табулатур и нот


Monkees - Just a Game - текст песни, бас-таба, видео

Регистрация Запомнить меня
Войти через:  Facebook Google Twitter Vk Yandex Mail.ru

Monkees - Just a Game - текст песни, бас-таба, видео

Печатать
Просмотров: 35
Уроки эстрадного вокала в Санкт-Петербурге
Tabbed by: 6METAL6BASSIST6
E-mail: petergriffinav@gmail.com

Tuning: EADG

0:23

G|------------------------------------------------------------------------------------------------|
D|------------------------------------------------------------------------------------------------|
A|7-----7-----7-----7-----7-----7-----7---------7-9-----9-----9-----9-----9-----9-----9---------9-|
E|----------------------7-------------------7---------------------------9-------------------9-----|

G|------------------------------------------------|
D|------------------------------------------------|
A|7-----7-----7---------7-9-----9-----------9-----|
E|------------------7-----------------7---------7-|

0:37

G|------------------------------------------------------------------------------------------------|
D|------------------------------------------------------------------------------------------------|
A|7-----7-----7-----7-----7-----7-----7---------7-9-----9-----9-----9-----9-----9-----9---------9-|
E|----------------------7-------------------7---------------------------9-------------------9-----|

G|------------------------------------------------|
D|------------------------------------------------|
A|7-----7-----7---------7-9-----9-----------9-----|
E|------------------7-----------------7---------7-|

0:52

G|------------------------------------------------------------------------------------------------|
D|------------------------------------------------------------------------------------------------|
A|7-----7-----7-----7-----7-----7-----7---------7-9-----9-----9-----9-----9-----9-----9---------9-|
E|----------------------7-------------------7---------------------------9-------------------9-----|

G|------------------------------------------------|
D|------------------------------------------------|
A|7-----7-----7---------7-9-----9-----------9-----|
E|------------------7-----------------7---------7-|

1:06

G|------------------------------------------------------------------------------------------------|
D|------------------------------------------------------------------------------------------------|
A|7-----7-----7-----7-----7-----7-----7---------7-9-----9-----9-----9-----9-----9-----9---------9-|
E|----------------------7-------------------7---------------------------9-------------------9-----|

G|--------------------------------------------------|
D|--------------------------------------------------|
A|7-----7-----7---------7-9-----9-----------9-----7-|
E|------------------7-----------------7---------7---|
Добавлено: 26.10.2017
Другие материалы по этой песне:
  • Аккорды и текст

Страница создана 17.02.2014
http://primanota.ru/monkees/just-a-game-chords.htm
Привет, Гость.
Предлагаем пройти революционный курс по гитаре.
Подарок от PrimaNota.Ru, забирай!