PrimaNota.ru - самый крупный в мире бесплатный архив песенных текстов, аккордов, табулатур и нот


Monkees - Smile - текст песни, бас-таба, видео

Регистрация Запомнить меня
Войти через:  Facebook Google Twitter Vk Yandex Mail.ru

Monkees - Smile - текст песни, бас-таба, видео

Печатать
Просмотров: 36
Уроки эстрадного вокала в Санкт-Петербурге
Tabbed by: 6METAL6BASSIST6
E-mail: petergriffinav@gmail.com

Tuning: EADG

G|----------------------------------------------------------------|
D|----------------------------------------------------------------|
A|------------------------------------------------------------5---|
E|----------------------------------------------------------------|

G|----------------------------------------------------------------|
D|----------------------------------------------------------------|
A|--------------------------------5-----------5---5---5-------5---|
E|5-----------5---5---5-------5-----------------------------------|

0:10

G|----------------------------------------------------------------|
D|----------------------------------------------------------------|
A|--------------------------------5-----------5---5---5-------5---|
E|3-----------3---3---3-------3-----------------------------------|

G|----------------------------------------------------------------|
D|----------------------------------------------------------------|
A|----------------------------------------------------------------|
E|3-----------3---3---3-------3---7-----------7---7-------6-------|

G|----------------------------------------------------------------|
D|----------------------------------------------------------------|
A|----------------------------------------------------------------|
E|5-----------5---5---5-------5---3-----------3---3---3-------3---|

G|----------------------------------------------------------------|
D|----------------------------------------------------------------|
A|--------------------------------3---3-------3---5-----------5---|
E|5-----------5---5---5-------5-----------------------------------|

G|----------------------------------------------------------------|
D|----------------------------------------------------------------|
A|----------------------------2---3---3-------3---5---5-------5---|
E|3-----------3---3---3---5---------------------------------------|

0:33

G|----------------------------------------------------------------|
D|----------------------------------------------------------------|
A|--------------------------------5-----------5---5---5-------5---|
E|3-----------3---3-----------3-----------------------------------|

G|----------------------------------------------------------------|
D|----------------------------------------------------------------|
A|----------------------------------------------------------------|
E|3-----------3---3---3-------3---7-----------7---7-------6-------|

G|----------------------------------------------------------------|
D|----------------------------------------------------------------|
A|----------------------------------------------------------------|
E|5-----------5---5---5-------5---3-----------3---3-----------3---|

G|----------------------------------------------------------------|
D|----------------------------------------------------------------|
A|--------------------------------3---3-------3---5---5-------5---|
E|5-----------5---5---5-------5-----------------------------------|

G|----------------------------------------------------------------|
D|----------------------------------------------------------------|
A|----------------------------2---3---3-------3---5---5-------5---|
E|3-----------3---3---3---5---------------------------------------|

0:56

G|----------------------------------------------------------------|
D|----------------------------------------------------------------|
A|----------------------------------------------------------------|
E|5---5-------5---5---5-------5---5---5-------5---5---5-------5---|

G|----------------------------------------------------------------|
D|----------------------------------------------------------------|
A|----------------------------------------------------------------|
E|3---------------------------------------3---3---3---3---3---3---|

G|----------------------------------------------------------------|
D|----------------------------------------------------------------|
A|----------------------------------------------------------------|
E|5---5-------5---5-----------5---5-----------5---5---5-------5---|

G|----------------------------------------------------------------|
D|----------------------------------------------------------------|
A|5---------------------------------------5---5---5---5---5---5---|
E|----------------------------------------------------------------|

G|----------------------------------------------------------------|
D|----------------------------------------------------------------|
A|5---5---5---5---5---5---5---5---5---5---5---5---5---5---5---5---|
E|----------------------------------------------------------------|

G|----------------------------------------------------------------|
D|----------------------------------------------------------------|
A|5---5---5---5---5---5---5---5---5-------------------------------|
E|----------------------------------------------------------------|

1:23

G|----------------------------------------------------------------|
D|----------------------------------------------------------------|
A|--------------------------------5-----------5---5---5-------5---|
E|3-----------3---3---3-------3-----------------------------------|

G|----------------------------------------------------------------|
D|----------------------------------------------------------------|
A|----------------------------------------------------------------|
E|3-----------3---3---3-------3---7-----------7---7-------6-------|

G|----------------------------------------------------------------|
D|----------------------------------------------------------------|
A|----------------------------------------------------------------|
E|5-----------5---5---5-------5---3-----------3---3-----------3---|

G|----------------------------------------------------------------|
D|----------------------------------------------------------------|
A|--------------------------------3---3-------3---5---5-------5---|
E|5-----------5---5---5-------5-----------------------------------|

G|----------------------------------------------------------------|
D|----------------------------------------------------------------|
A|----------------------------2---3---3-------3---5---5-------5---|
E|3-----------3---3---3---5---------------------------------------|

1:45

G|----------------------------------------------------------------|
D|----------------------------------------------------------------|
A|----------------------------------------------------------------|
E|5---5-------5---5---5-------5---5-----------5---5-----------5---|

G|----------------------------------------------------------------|
D|----------------------------------------------------------------|
A|----------------------------------------------------------------|
E|3---------------------------------------3---3---3---3---3---3---|

G|----------------------------------------------------------------|
D|----------------------------------------------------------------|
A|----------------------------------------------------------------|
E|5---5-------5---5-----------5---5---5-------5---5-----------5---|

G|----------------------------------------------------------------|
D|----------------------------------------------------------------|
A|5---------------------------------------5---5---5---5---5---5---|
E|----------------------------------------------------------------|

2:04

G|7---7---7---7---7---7---7---7---7---7---7---7---7---7---7---7-/-|
D|----------------------------------------------------------------|
A|----------------------------------------------------------------|
E|----------------------------------------------------------------|

G|7---7---7---7---7---7---7---7-/-7---7-/-7---7-/-7---7---7---7---|
D|----------------------------------------------------------------|
A|----------------------------------------------------------------|
E|----------------------------------------------------------------|

G|5/7-----5/7-----5/7-----5/7---------|
D|------------------------------------|
A|--------------------------------5---|
E|------------------------------------|
Добавлено: 26.10.2017
Другие материалы по этой песне:
  • Аккорды и текст

Страница создана 26.01.2014
http://primanota.ru/monkees/smile-chords.htm
Привет, Гость.
Предлагаем пройти революционный курс по гитаре.
Подарок от PrimaNota.Ru, забирай!