PrimaNota.ru - самый крупный в мире бесплатный архив песенных текстов, аккордов, табулатур и нот


Monkees - Midnight Train - текст песни, бас-таба, видео

Регистрация Запомнить меня
Войти через:  Facebook Google Twitter Vk Yandex Mail.ru

Monkees - Midnight Train - текст песни, бас-таба, видео

Печатать
Просмотров: 37
Уроки эстрадного вокала в Санкт-Петербурге
Tabbed by: 6METAL6BASSIST6
E-mail: petergriffinav@gmail.com

Tuning: EADG

G|----------------------------------------------------------------|
D|----------------------------6---7---------------7-----------7---|
A|7---------------7-------9---------------7---------------7-------|
E|--------7-------------------------------------------------------|

G|----------------------------------------------------------------|
D|9---------------9-----------------------------------------------|
A|--------9-----------------------7-----5-----4-------3---2---/---|
E|------------------------7-----------5-------------5-------------|

0:10

G|----------------------------------------------------------------|
D|----------------------------6---7---------------7---------------|
A|7---------------7-------9---------------7---------------9-------|
E|--------7-------------------------------------------------------|

G|------------------------------------------------------------------------------------------------|
D|------------------------6-----/-9---------------------------------------------------------------|
A|7---------------7-----------------------9-------------------6---7---------------7-----------6---|
E|--------7---------------------------------------7-------9---------------7---------------7-------|

G|----------------------------------------------------------------|
D|----------------------------6---7---------------7---------------|
A|7---------------7-------9---------------7---------------9-------|
E|--------7-------------------------------------------------------|

G|------------------------------------------------------------------------------------------------|
D|------------------------6---7---9-----------------------------------------------------4-----6---|
A|7---------------7---9-------------------9-------------------6---7---------------7---------------|
E|--------7---------------------------------------7-------9---------------7-----------------------|

0:26

G|----------------------------------------------------------------|
D|7---------------7---------------------------------------4---6---|
A|--------7---------------4-------7---------------7---------------|
E|----------------------------------------7-----------------------|

G|------------------------------------------------9---7-----------|
D|7---------------7-----------------------6---7-----------9---8---|
A|--------7---------------4-------7---9---------------------------|
E|----------------------------------------------------------------|

G|----------------------------------------------------------------|
D|7---------------7-------4-------------------------------6-----/-|
A|--------7-----------------------7---------------7---------------|
E|----------------------------------------7-----------------------|

G|----------------------------------------------------------------|
D|9---------------7-------7---------------------------------------|
A|--------9-----------------------7---------------7-------2---/---|
E|----------------------------------------7-----------------------|

0:40

G|----------------------------------------------------------------|
D|----------------------------6---7---------------7---6-----------|
A|7---------------7-------9---------------7---------------9-------|
E|--------7-------------------------------------------------------|

G|------------------------------------------------------------------------------------------------|
D|------------------------6---7---9---------------------------------------------------------------|
A|7---------------7---9-------------------9-------------------6---7---------------7---------------|
E|--------7---------------------------------------7-------9---------------7---------------7-------|

G|----------------------------------------------------------------|
D|----------------------------6---7---------------7-------7-------|
A|7---------------7-------9---------------7-----------------------|
E|--------7-------------------------------------------------------|

G|------------------------------------------------------------------------------------------------|
D|------------------------6---7---9-----------------------------------------------------------6---|
A|7---------------7---9-------------------9-------------------6---7---------------7-------9-------|
E|--------7---------------------------------------7-------9---------------7-----------------------|

0:58

G|----------------------------------------------------------------|
D|7---------------7---------------------------------------4---6---|
A|--------7---------------4-------7---------------7---------------|
E|----------------------------------------7-----------------------|

G|------------------------------------------------7---------------|
D|7---------------7-----------------------6---------------9-------|
A|--------7---------------4-------7-------------------------------|
E|----------------------------------------------------------------|

G|----------------------------------------------------------------|
D|7---------------7-------4-------------------------------6-----/-|
A|--------7-----------------------7---------------7---------------|
E|----------------------------------------7-----------------------|

G|----------------------------------------------------------------|
D|9---------------7-------7---------------------------------------|
A|--------9-----------------------7---------------7---------------|
E|----------------------------------------7---------------7-------|

1:12

G|----------------------------------------------------------------|
D|----------------------------6---7---------------7---------------|
A|7---------------7-------9---------------7---------------4-------|
E|--------7-------------------------------------------------------|

G|------------------------------------------------------------------------------------------------|
D|------------------------------/-9-----------------------------------------------------------6---|
A|7---------------7-------7---------------------------------------7---------------7-------9-------|
E|--------7---------------------------------------------------------------7-----------------------|

1:20

G|----------------------------------------------------------------|
D|7---------------7-----------------------------------4---5---6---|
A|--------7---------------4-------7---------------7---------------|
E|----------------------------------------7-----------------------|

G|------------------------------------9-------7-------------------|
D|7---------------7-------------------------------9---------------|
A|--------7---------------2---/---7-----------------------7-------|
E|----------------------------------------------------------------|

G|----------------------------------------------------------------|
D|7---------------7-------7-------------------------------6-----/-|
A|--------7-----------------------7---------------7---------------|
E|----------------------------------------7-----------------------|

G|----------------------------------------------------------------|
D|9---------------7-------7-------------------------------4---6---|
A|--------9-----------------------7---------------7---7-----------|
E|----------------------------------------7-----------------------|

1:34

G|----------------------------------------------------------------|
D|7---------------7-------7---------------------------------------|
A|--------7-----------------------7---------------7-------7-------|
E|----------------------------------------7-----------------------|

G|----------------------------------------------------------------|
D|7---------------7-------9-----------------------------------6---|
A|--------7-----------------------7---------------7-------9-------|
E|----------------------------------------7-----------------------|

G|----------------------------------------------------------------|
D|7---------------7-------7-------------------------------6-------|
A|--------7-----------------------7---------------7---------------|
E|----------------------------------------7-----------------------|

G|----------------------------------------------------------------|
D|9---------------7-------7---------------------------------------|
A|--------9-----------------------7---------------7---------------|
E|----------------------------------------7---------------7-------|

1:47

G|----------------------------------------------------------------|
D|----6---7---8---9---7-------------------------------------------|
A|7-------------------------------7---------------7---------------|
E|------------------------7---------------7---------------7-------|

G|----------------------------------------------------------------|
D|----------------9-----------------------------------------------|
A|7-------7---------------9-------7---------------7---------------|
E|----------------------------------------7---------------7-------|

G|--------------------6---7---8---9-------------------------------|
D|----6---7---8---9-----------------------------------------------|
A|7---------------------------------------------------------------|
E|----------------------------------------------------------------|

G|----------------------------------------------------------------|
D|----------------------------------------------------------------|
A|----------------------------------------------------------------|
E|----------------------------------------------------------------|

G|----------------------------------------------------------------|
D|----------------------------------------------------------------|
A|----------------------------------------------------------------|
E|----------------------------------------------------------------|

G|----------------------------|
D|----------------7---9-------|
A|------------------------7---|
E|----------------------------|
Добавлено: 26.10.2017
Другие материалы по этой песне:
  • Аккорды и текст

Страница создана 19.08.2013
http://primanota.ru/monkees/midnight-train-chords.htm
Привет, Гость.
Предлагаем пройти революционный курс по гитаре.
Подарок от PrimaNota.Ru, забирай!