PrimaNota.ru - самый крупный в мире бесплатный архив песенных текстов, аккордов, табулатур и нот


Monkees - Looking for The Good Times - текст песни, бас-таба, видео

Регистрация Запомнить меня
Войти через:  Facebook Google Twitter Vk Yandex Mail.ru

Monkees - Looking for The Good Times - текст песни, бас-таба, видео

Печатать
Просмотров: 66
Tabbed by: 6METAL6BASSIST6
E-mail: petergriffinav@gmail.com

Tuning: EADG

G|----------------------------------------------------------------|
D|2-----------0---------------------------------------------------| x4
A|------------------------4-----------4-----------3-------2-------|
E|----------------------------------------------------------------|

0:13

G|----------------------------------------------------------------|
D|2-------2-------0-------0---------------------------------------|
A|--------------------------------4-------4-------2-------2-------|
E|----------------------------------------------------------------|

G|----------------------------------------------------------------|
D|2-------2-------0-------0---------------------------------------|
A|--------------------------------2-------2-----2-2---2---2---2---|
E|----------------------------------------------------------------|

G|----------------------------------------------------------------|
D|2-------2-------0-------0---------------------------------------|
A|--------------------------------4-------4-------2-------2-------|
E|------------------------------------------------------------2---|

G|----------------------------------------------------------------|
D|--------------------------------------------------------1---4---|
A|2-------2-------2---2-----------2-------2-------2---4-----------|
E|------------2---------------2---------------2-------------------|

0:24

E|----------------------------------------------------------------|
D|2-------2-------2---2-----------2-------2-------2---0-----------|
A|--------------2-------------2-----------------2---------4---2---|
E|----------------------------------------------------------------|

G|----------------------------------------------------------------|
D|----------------------------------------------------------------|
A|----------------------------------------------------------------|
E|5-------5-----0-5---5-------0---5-------5-----0-5---5-------5---|

E|----------------------------------------------------------------|
D|4-------4-------4---4-----------4-------4-------4---------------|
A|--------------4-------------4-----------------4-----------------|
E|----------------------------------------------------------------|

G|----------------------------------------------------------------|
D|9-----------7-----------5-----------4---------------------------|
A|------------------------------------------------2---------------|
E|----------------------------------------------------------------|

G|------------------------------------------------|
D|------------------------------------------------|
A|------------------------------------------------|
E|------------------------------------------------|

0:41

G|----------------------------------------------------------------|
D|2-------2-------0-------0---------------------------------------|
A|--------------------------------4-------4-------2-------2-------|
E|----------------------------------------------------------------|

G|----------------------------------------------------------------|
D|2-------2-------0-------0---------------------------------------|
A|--------------------------------2-------2-----2-2---2---2-------|
E|----------------------------------------------------------------|

G|----------------------------------------------------------------|
D|2---------------0-------0---------------------------------------|
A|--------------------------------4-------4-------2-------2-------|
E|------------------------------------------------------------2---|

G|----------------------------------------------------------------|
D|----------------------------------------------------------------|
A|2-------2-------2---2-----------2---2---2-------2---2-------2---|
E|------------2---------------2-----------------------------------|

0:52

G|----------------------------------------------------------------|
D|6---6-----------6---6-----------6---6-----------6---6-----------|
A|------------6---------------6---------------6-------------------|
E|----------------------------------------------------------------|

G|----------------------------------------------------------------|
D|3---3-----------3---3-----------3---3-----------3---3-----------|
A|------------3---------------3---------------3-------------------|
E|----------------------------------------------------------------|

G|----------------------------------------------------------------|
D|6---6-----------6---6-----------6---6-----------6---6-----------|
A|------------6---------------6---------------6-------------------|
E|----------------------------------------------------------------|

G|----------------------------------------------------------------|
D|3---------------3---3-----------3---3-----------3---3-----------|
A|------------3---------------3---------------3-------------------|
E|----------------------------------------------------------------|

1:08

G|----------------------------------------------------------------|
D|8---8-----------8---8-----------8---8-----------8---8-----------|
A|------------8---------------8---------------8---------------8---|
E|----------------------------------------------------------------|

G|----------------------------------------------------------------|
D|8---8-----------8---8---------------8-----------8---8-----------|
A|------------8---------------8---8-----------8-------------------|
E|----------------------------------------------------------------|

G|----------------------------------------------------------------|
D|4---4-----------4---4-----------4---4-----------4---4-----------|
A|------------4---------------4---------------4-------------------|
E|----------------------------------------------------------------|

G|----------------------------------------------------------------|
D|----------------------------------------------------------------|
A|2-------2-------2-------2-------2-------2-------2---2---2-------|
E|------------------------------2---------------2-----------------|

1:22

G|----------------------------------------------------------------|
D|2---------------0-----------------------------------------------|
A|--------------------------------4---------------2-------2-------|
E|----------------------------------------------------------------|

G|----------------------------------------------------------------|
D|2-------2-------0-------0---------------------------------------|
A|--------------------------------2-------2-----2-2---2---2-------|
E|----------------------------------------------------------------|

G|----------------------------------------------------------------|
D|2-------2-------0-------0---------------------------------------|
A|--------------------------------------------------------2-------|
E|------------------------------------------------------------2---|

G|----------------------------------------------------------------|
D|----------------------------------------------------------------|
A|2-------2-------2---2-----------2-------2-------2---2---2-------|
E|------------2---------------2---------------2-------------------|

G|----------------------------------------------------------------|
D|2-----------0---------------------------------------------------| x2
A|------------------------4-----------4-----------3-------2-------|
E|----------------------------------------------------------------|

1:39

G|----------------------------------------------------------------|
D|2-------2-------0-----------------------------------------------|
A|--------------------------------4---------------2---------------|
E|----------------------------------------------------------------|

G|----------------------------------------------------------------|
D|2-------2-------0-------0---------------------------------------|
A|--------------------------------2-------2-----2-2---2-----------|
E|----------------------------------------------------------------|

G|----------------------------------------------------------------|
D|2-------2-------0-------0---------------------------------------|
A|--------------------------------4---------------2-------2-------|
E|------------------------------------------------------------2---|

G|----------------------------------------------------------------|
D|----------------------------------------------------------------|
A|2-------2---2---2---2---2---2---2---2---2---2---2---2-----------|
E|--------------------------------------------------------2---2---|

G|----------------------------------------------------------------|
D|----------------------------------------------------------------|
A|2-------2---2---2---2---2---2---2---2---2---2---2---2---2---2---|
E|----------------------------------------------------------------|

G|----------------------------------------------------------------|
D|----------------------------------------------------------------|
A|2---------------------------------------------------------------|
E|------------------------------------------------0---------------|
Добавлено: 04.03.2016
Другие материалы по этой песне:
  • Аккорды и текст

Страница создана 29.09.2013
http://primanota.ru/monkees/looking-for-the-good-times-chords.htm
Привет, Гость.
Предлагаем пройти революционный курс по гитаре.
Подарок от PrimaNota.Ru, забирай!