PrimaNota.ru - самый крупный в мире бесплатный архив песенных текстов, аккордов, табулатур и нот


Monkees - The Day we Fall in Love - текст песни, бас-таба, видео

Регистрация Запомнить меня
Войти через:  Facebook Google Twitter Vk Yandex Mail.ru

Monkees - The Day we Fall in Love - текст песни, бас-таба, видео

Печатать
Просмотров: 41
Уроки эстрадного вокала в Санкт-Петербурге
Авторы: Sandy Linzer, Denny Randell

Tabbed by: 6METAL6BASSIST6
E-mail: petergriffinav@gmail.com

Tuning: EADG

G|----------------------------------------------------------------|
D|------------------------0-------------------------------0-------|
A|--------------------3-------3---1-------------------3-------3---|
E|----------------------------------------------------------------|

G|----------------1-----------------------------------------------|
D|--------1---------------1-------------------------------0-------| x2
A|1-------------------------------1-------------------3-------3---|
E|----------------------------------------------------------------|

0:19

G|----------------------------------------------------------------|
D|1-------------------------------1-------------------------------|
A|----------------1-----------1-------------------1-----------1---|
E|----------------------------------------------------------------|

G|----------------1-----------1-----------------------------------|
D|1-------------------------------3-----------3-/-5-------5-------|
A|----------------------------------------------------------------|
E|----------------------------------------------------------------|

G|----------------------------------------------------------------|
D|1---------------1-----------1---0-----------0---0-----------0---|
A|--------1---3-------1---3-------------------------------3-------|
E|----------------------------------------------------------------|

G|----------------------------------------------------------------|
D|1-----------1---1-------1-------0-----------0---0-------0-------|
A|----------------------------------------------------------------|
E|----------------------------------------------------------------|

G|----------------------------------------------------------------|
D|----------------------------------------------------------------|
A|3-----------3---3-------1---------------------------------------|
E|--------------------------------4-----------4---4-------4-------|

G|--------------------------------|
D|3-----------3---3-------3-------|
A|--------------------------------|
E|--------------------------------|

0:51

G|----------------1-----------------------------------------------|
D|--------1---------------1-------------------------------0-------| x2
A|1-------------------------------1-------------------3-------3---|
E|----------------------------------------------------------------|

1:02

G|----------------------------------------------------------------|
D|1-----------1-------------------1-------------------------------|
A|----------------1-----------1-------------------1-----------1---|
E|----------------------------------------------------------------|

G|----------------1-----------1-----------------------------------|
D|1-------------------------------3-----------3-/-5-------5-------|
A|----------------------------------------------------------------|
E|----------------------------------------------------------------|

G|----------------------------------------------------------------|
D|1---------------1-----------1---0-----------0---0---0-------0---|
A|--------1---3-------1---3-------------------------------3-------|
E|----------------------------------------------------------------|

G|----------------------------------------------------------------|
D|1---------------1-----------1---0-----------0---0-------0-------|
A|------------3-------1---3---------------------------------------|
E|----------------------------------------------------------------|

G|----------------------------------------------------------------|
D|------------------------------------------------3-------3-------|
A|3-----------3---3-------1---------------------------------------|
E|--------------------------------4-----------4-------------------|

G|----------------------------------------------------------------|
D|----------------------------------------------------------------|
A|1-----------1---1-------1-------1-----------1---1-------1---1---|
E|----------------------------------------------------------------|

1:38

G|1-------1---1---------------------------------------------------|
D|----------------3-------3-----------------------------------3-/-|
A|--------------------------------1-----------1---1-------1-------|
E|----------------------------------------------------------------|

G|----------------------------------------------------------------|
D|5-----------5-------------------3-----------3---3---3---3---3---|
A|----------------3-----------------------------------------------|
E|----------------------------------------------------------------|

G|----------------1-------1---------------------------------------|
D|1-----------1-------------------3-----------3-/-5-------3-------|
A|----------------------------------------------------------------|
E|----------------------------------------------------------------|

G|----------------------------------------------------------------|
D|1---------------1-----------1---0-----------0---0---0-------0---|
A|--------1---3-------1---3-------------------------------3-------|
E|----------------------------------------------------------------|

2:00

G|----------------------------------------------------------------|
D|1---------------1-----------1---0-----------0---0-------0-------|
A|--------1---3-------1---3---------------------------------------|
E|----------------------------------------------------------------|

G|--------------------------------1-----------1-------------------|
D|------------------------------------------------3-------3-------|
A|3-----------3---3-------3---------------------------------------|
E|----------------------------------------------------------------|

G|----------------------------------------------------------------|
D|----------------------------------------------------------------|
A|1-----------1---1-------1-------1-----------1---1---------1-----|
E|----------------------------------------------------------------|

G|--------------------------------|
D|--------------------------------|
A|------1-------------------------|
E|--------------------------------|
Добавлено: 25.06.2017
Другие материалы по этой песне:
  • Аккорды и текст

Страница создана 22.05.2012
http://primanota.ru/monkees/the-day-we-fall-in-love-chords.htm
Привет, Гость.
Предлагаем пройти революционный курс по гитаре.
Подарок от PrimaNota.Ru, забирай!