PrimaNota.ru - самый крупный в мире бесплатный архив песенных текстов, аккордов, табулатур и нот


Monkees - Calico Girlfriend Samba - текст песни, бас-таба, видео

Регистрация Запомнить меня
Войти через:  Facebook Google Twitter Vk Yandex Mail.ru

Monkees - Calico Girlfriend Samba - текст песни, бас-таба, видео

Печатать
Просмотров: 34
Уроки эстрадного вокала в Санкт-Петербурге
Tabbed by: 6METAL6BASSIST6
E-mail: petergriffinav@gmail.com

Tuning: EADG

0:08

G|----------------------------------------------------------------|
D|--------------------------------------------------------2---/---|
A|----------------------------------------------------------------|
E|----------------------------------------------------------------|

G|----------------------------------------------------------------|
D|9---------------9-----9---------9---------------9-----9---------| x2
A|--------9---------------9---------------7---------------7-------|
E|----------------------------------------------------------------|

0:19

G|----------------------------------------------------------------|.
D|9---------------9-----9---------9---------------9-----9---------|.
A|--------9---------------9---------------7---------------7-------|.
E|----------------------------------------------------------------|.
                                                                   .
G|----------------------------------------------------------------|.
D|9---------------9-----9---------9---------------9-----9---------|.
A|--------9---------------9---------------7---------------7---\---|.
E|----------------------------------------------------------------|.
                                                                   . x2
G|----------------------------------------------------------------|.
D|5---------------5-----5---------5---------------5-----5---------|.
A|--------5---------------5---------------3---------------3-------|.
E|----------------------------------------------------------------|.
                                                                   .
G|----------------------------------------------------------------|.
D|5---------------5-----5---------5---------------5-----5-----5-/-|.
A|--------5---------------5---------------3---------------3-------|.
E|----------------------------------------------------------------|.

0:49

G|----------------------------------------------------------------|
D|9---------------9-----9---------9---------------9-----9---------|
A|--------9---------------9---------------7---------------7-------|
E|----------------------------------------------------------------|

G|----------------------------------------------------------------|
D|9---------------9-----9---------9---------------9-----9---------|
A|--------9---------------9---------------7---------------7---\---|
E|----------------------------------------------------------------|

G|----------------------------------------------------------------|
D|5---------------5-----5---------5---------------5-----5---------|
A|--------5---------------5---------------3---------------3-------|
E|----------------------------------------------------------------|

G|----------------------------------------------------------------|
D|5---------------5-----5---------5---------------5-------------/-|
A|--------5---------------5---------------3---------------3-------|
E|----------------------------------------------------------------|

1:05

G|----------------------------------------------------------------|
D|7---------------7-----------7-----------7---------------4-------|
A|--------7---------------7-------5---------------5---------------|
E|----------------------------------------------------------------|

G|----------------------------------------------------------------|
D|5---------------5-----------------------2-------3-------4---5---|
A|--------5---------------5---\---3-------------------------------|
E|----------------------------------------------------------------|

G|------------------------------------------------7---------------|
D|7---------------7-----------------------7---------------7-------|
A|--------7---------------7---\---5-------------------------------|
E|----------------------------------------------------------------|

G|----------------------------------------------------------------|
D|5---------------5---------------5---------------5-------5---/---|
A|--------5---------------5---------------------------------------|
E|----------------------------------------3-----------------------|

1:20

G|----------------------------------------------------------------|
D|9---------------9---------------9---------------9-----9---------|
A|--------9---------------9---------------7---------------7-------|
E|----------------------------------------------------------------|

G|----------------------------------------------------------------|
D|9---------------9-----9---------9---------------9-----9---------|
A|--------9---------------9---------------7---------------7---\---|
E|----------------------------------------------------------------|

G|----------------------------------------------------------------|
D|5---------------5-----5---------5---------------5-----5---------|
A|--------5---------------5---------------3---------------3-------|
E|----------------------------------------------------------------|

G|----------------------------------------------------------------|
D|5---------------5-----5---------5---------------5---------------|
A|--------5---------------5---------------3-----------------------|
E|----------------------------------------------------------------|

G|----------------------------------------------------------------|
D|--------------------------------------------------------2---/---|
A|----------------------------------------------------------------|
E|----------------------------------------------------------------|

G|----------------------------------------------------------------|
D|9---------------9-----9---------9---------------9-----9---------| until fadeout.
A|--------9---------------9---------------7---------------7-------|
E|----------------------------------------------------------------|
Добавлено: 26.10.2017
Другие материалы по этой песне:
  • Аккорды и текст

Страница создана 08.08.2013
http://primanota.ru/monkees/calico-girlfriend-samba-chords.htm
Привет, Гость.
Предлагаем пройти революционный курс по гитаре.
Подарок от PrimaNota.Ru, забирай!