PrimaNota.ru - самый крупный в мире бесплатный архив песенных текстов, аккордов, табулатур и нот


Misc - Depravity - таба, видео

Регистрация Запомнить меня
Войти через:  Facebook Google Twitter Vk Yandex Mail.ru

Misc - Depravity - таба, видео

Печатать
Просмотров: 70
Уроки эстрадного вокала в Санкт-Петербурге
-------------------------------------------------------------------------------
                             Misc - Depravity 
-------------------------------------------------------------------------------
Tabbed by:
E-mail:

Tuning: Standard (ebgDAE)
Intro (play fast)
e|---------------------------------------------------------------|
B|---------------------------------------------------------------|
G|---------------------------------------------------------------|
D|---------------------3-2-------2---------------3-2-------2-3-4-|
A|-------------0-2-3-5-----3-----2-------0-2-3-5-----3-----2-3-4-|
E|-xx\\--0-2-3---------------5-3-0-0-2-3---------------5-3-0-1-2-|x4
Heavy PM * * * * * * * * * * * *   * * * * * * * * * * * *   

Part 2
e|----------------------------------------------------------------------------|
B|-------------------7-----7-----7-----7------5-------5-------5---------------|
G|---7---7---7---7-----8-----8-----8-----8------6-------6-------6---------3-4-|
D|------------------------------------------------7-------5-------7-------3-4-|
A|-0---0---0---0---0-----0-----0-----0------------------------------------1-2-|
E|------------------------------------------0-------0-------0-------0-2-3-----|x2
PM *   *   *   *   *     *     *     *      *       *       *       * * * 

Verses (HEAVY PM)
e|-----------------------------------------------------------------------------------------------------|
B|-----------------------------------------------------------------------------------------------------|
G|-------------------------------------------------------------------------------------------9-7-------|
D|-----------------------------5/6\5-------------------------8\7/8-------------------------9-9-7-7-6-2-|
A|-----------------------------5/6\5-------------------------8\7/8-------------------------9-7-5-7-6-2-|
E|-0-0-0-0-0-0-0-0-0-0-0-0-0-0-3/4\3-0-0-0-0-0-0-0-0-0-0-0-0-6\5/6-0-0-0-0-0-0-0-0-0-0-0-0-7-----5-4-0-|
PM * * * * * * * * * * * * * *       * * * * * * * * * * * *       * * * * * * * * * * * * * * * * * 

Chorus
e|--------------------------------------------------------------------------------------------|
B|--------------------------------------------------------------------------------------------|
G|---------------------------------------------------------4------------------------3---------|
D|-----5-------3---------2--/7~-10-7---6-9-8-7------6------4--2h3p2---2-------------3-5-4-3-2-|
A|-----5-------3-----3-2-2-----------9---9-8-7------6------2--------4---4-2---------1-5-4-3-2-|
E|-12\-3--/12\-1-1-3-----0---------------7-6-5-/12\-4-/12\------------------3~-/12\---3-2-1-0-|
PM               * * * *                                      * * * * * * *           * * * 

interlude
e|---------------------------------------------------------------------------|
B|---------------------------------------------------------------------------|
G|---------------------------------3---------------------------------------6-|
D|---------------------------------3-3-----------------------------------6-6-|
A|-5-------5-------5-------5-------1-3--8-------8--------8-------8-------6-4-|
E|---3-2-1---3-2-1---3-2-1---3-2-1---1----6-5-4---6-5-4----6-5-4---6-5-4-4---|



************************************

| /   slide up
| \   slide down
| h   hammer-on
| p   pull-off
| ~   vibrato
| +   harmonic
| x   Mute note
| b   Bend
| pb  Pre-bend
| br  Bend release
| pbr Pre-bend release
| brb Bend release bend

************************************
Добавлено: 02.03.2016
Другие материалы по этой песне:
  • Аккорды и текст

Страница создана 02.03.2016
http://primanota.ru/misc/depravity-chords.htm
Привет, Гость.
Предлагаем пройти революционный курс по гитаре.
Подарок от PrimaNota.Ru, забирай!