PrimaNota.ru - самый крупный в мире бесплатный архив песенных текстов, аккордов, табулатур и нот


Misc - Holy Rivers - таба, видео

Регистрация Запомнить меня
Войти через:  Facebook Google Twitter Vk Yandex Mail.ru

Misc - Holy Rivers - таба, видео

Печатать
Просмотров: 83
-------------------------------------------------------------------------------
                             Holy Rivers - Misc
-------------------------------------------------------------------------------
Tabbed by:
E-mail:

Tuning: EBGDAE (STANDARD)
Chorus/Intro
e|-------------------------------------------------------------------------------------------------|
B|-------------------------------------------------------------------------------------------------|
G|-------------------------------------------------------------------------------------------------|
D|------------------5-------------5-------------3-------------3-6-5---6-5------6-5---6-5-----------|
A|------------------5-------------5-0-1---0-1---3-0-1---0-1---3-----3-----3--------3-----3---------|
E|-xx//-0-3-5-0-3-5-3-0-3-5-0-3-5-3-----3-----3-1-----3-----3-1-------------5~-------------5h6p5~--|
PM      * * * * * *   * * * * * *   * * * * * *   * * * * * *   * * * * * *    * * * * * * 

Verses
e|-------------------------------------------------------------------------------|
B|-------------------------------------------------------------------------------|
G|--------------------------------------------------------------5~---------------|
D|-5----5---2-5----5---3----3---2-----2-----0-----0-2-3-----6------5-6-5-------5-|
A|-5----5---2-5----5---3----3---2---2-----3-----2---2-3-333---3----------6-5-3-5-|
E|-3-33-333/0-3-33-333\1-11-111-0-0-----1-----3-----0-1------------------------3-|
PM   **  **     **  **   **  **                         ***   *    * * *   

e|-----------------------------------------------------------------------------|
B|-----------------------------------------------------------------------------|
G|-----------------3-----------------5-----------------2-----------------------|
D|-5/6-5/6-5/6-5/6-3-5/6-5/6-5/6-5/6-5-5/6-5/6-5/6-5/6-2-0-2-0-----------2---2-|
A|-5/6-5/6-5/6-5/6-1-5/6-5/6-5/6-5/6-3-5/6-5/6-5/6-5/6-0-------2-0-3-2-0---0-2-|
E|-3/4-3/4-3/4-3/4---3/4-3/4-3/4-3/4---3/4-3/4-3/4-3/4-----------------------0-|

Solo
e|-------------------------------------------------------------------------------------------------10b~--|
B|-------------------------------------------------------------------------------7-8-10-7-8----7-8-------|
G|-----------------------------------------------------8-----8-5-7-8-------5-7-8------------10-----------|
D|-------------------------------------5-7---5-7---5-7---5-7---------5-7-8-------------------------------|
A|-------------5-7---5-7---5-7-8-5-7-8-----8-----8-------------------------------------------------------|
E|-5-7-8-5-7-8-----8-----8-------------------------------------------------------------------------------|

e|-10b~-------------10h13p10----10h13p10h14p10----------13-------------10----------------10----------------|
B|-10b~-10b-10b-10b----------13----------------13p12p10----12-10h12h13----13p12p10h12h13----13p12p10h12h13-|
G|---------------------------------------------------------------------------------------------------------|
D|---------------------------------------------------------------------------------------------------------|
A|---------------------------------------------------------------------------------------------------------|
E|---------------------------------------------------------------------------------------------------------|

e|-10----------------10h14p10h14p10h13p10----10---------------------------------------------------------------|
B|----13p12p10h12h13----------------------12----12p10p9----10p9-----------------------------------------------|
G|------------------------------------------------------12------12p10------12------11p9----11p9---------------|
D|--------------------------------------------------------------------9h10----10p9-------9------9p7p6---7p6---|
A|----------------------------------------------------------------------------------------------------9-----7~|
E|------------------------------------------------------------------------------------------------------------|

Chorus/Intro
e|-------------------------------------------------------------------------------------------------|
B|-------------------------------------------------------------------------------------------------|
G|-------------------------------------------------------------------------------------------------|
D|------------------5-------------5-------------3-------------3-6-5---6-5------6-5---6-5-----------|
A|------------------5-------------5-0-1---0-1---3-0-1---0-1---3-----3-----3--------3-----3---------|
E|-xx//-0-3-5-0-3-5-3-0-3-5-0-3-5-3-----3-----3-1-----3-----3-1-------------5~-------------5h6p5~--|
PM      * * * * * *   * * * * * *   * * * * * *   * * * * * *   * * * * * *    * * * * * * 

Verses
e|-------------------------------------------------------------------------------|
B|-------------------------------------------------------------------------------|
G|--------------------------------------------------------------5~---------------|
D|-5----5---2-5----5---3----3---2-----2-----0-----0-2-3-----6------5-6-5-------5-|
A|-5----5---2-5----5---3----3---2---2-----3-----2---2-3-333---3----------6-5-3-5-|
E|-3-33-333/0-3-33-333\1-11-111-0-0-----1-----3-----0-1------------------------3-|
PM   **  **     **  **   **  **                         ***   *    * * *   

e|-----------------------------------------------------------------------------|
B|-----------------------------------------------------------------------------|
G|-----------------3-----------------5-----------------2-----------------------|
D|-5/6-5/6-5/6-5/6-3-5/6-5/6-5/6-5/6-5-5/6-5/6-5/6-5/6-2-0-2-0-----------2---2-|
A|-5/6-5/6-5/6-5/6-1-5/6-5/6-5/6-5/6-3-5/6-5/6-5/6-5/6-0-------2-0-3-2-0---0-2-|
E|-3/4-3/4-3/4-3/4---3/4-3/4-3/4-3/4---3/4-3/4-3/4-3/4-----------------------0-|

| /   slide up
| \   slide down
| h   hammer-on
| p   pull-off
| ~   vibrato
| +   harmonic
| x   Mute note
| b   Bend
| pb  Pre-bend
| br  Bend release
| pbr Pre-bend release
| brb Bend release bend

************************************
Добавлено: 02.03.2016
Другие материалы по этой песне:
  • Аккорды и текст

Страница создана 02.03.2016
http://primanota.ru/misc/holy-rivers-chords.htm
Привет, Гость.
Предлагаем пройти революционный курс по гитаре.
Подарок от PrimaNota.Ru, забирай!