PrimaNota.ru - самый крупный в мире бесплатный архив песенных текстов, аккордов, табулатур и нот


Misc - Envision - таба, видео

Регистрация Запомнить меня
Войти через:  Facebook Google Twitter Vk Yandex Mail.ru

Misc - Envision - таба, видео

Печатать
Просмотров: 56
-------------------------------------------------------------------------------
                             Envision - Misc
-------------------------------------------------------------------------------
Tabbed by:
E-mail:

Tuning: Standard (EBGDAE)
Start
e|----------------------------------------------------------------------------------------------------------|
B|----------------------------------------------------------------------------------------------------14-12-|
G|------------------------------------------------------13-11-10-------13-12-----13-12----14-12-11-12-------|
D|------------------------10-11-13----10-11-13----10-11----------11/14--------14-------14-------------------|
A|-------10-9----------11----------12----------12-----------------------------------------------------------|
E|-10-12------10-11-12--------------------------------------------------------------------------------------|
PM ** ** ** * ** ** **  

e|-------------------13-12----13-12----13-12----------15-13-12-------16----------16-14-13-14-16----18-17----|
B|-11-12-14-11-12-14-------14-------14-------15-13-12----------13-15----15-13-15----------------19-------19-|
G|----------------------------------------------------------------------------------------------------------|
D|----------------------------------------------------------------------------------------------------------|
A|----------------------------------------------------------------------------------------------------------|
E|----------------------------------------------------------------------------------------------------------|

e|----------------19-18----19-18----------------------------------18----------------21b-21b------|
B|-20-18-17-18-20-------20-------20-19-17----17-19-20-18-17----17----17-21-19-18----21b-21b-21~~-|
G|----------------------------------------18----------------18-------------------19--------------|
D|-----------------------------------------------------------------------------------------------|
A|-----------------------------------------------------------------------------------------------|
E|-----------------------------------------------------------------------------------------------|


************************************

| /   slide up
| \   slide down
| h   hammer-on
| p   pull-off
| ~   vibrato
| +   harmonic
| x   Mute note
| b   Bend
| pb  Pre-bend
| br  Bend release
| pbr Pre-bend release
| brb Bend release bend

************************************
Добавлено: 02.03.2016
Другие материалы по этой песне:
  • Аккорды и текст

Страница создана 02.03.2016
http://primanota.ru/misc/envision-chords.htm
Привет, Гость.
Предлагаем пройти революционный курс по гитаре.
Подарок от PrimaNota.Ru, забирай!