PrimaNota.ru - самый крупный в мире бесплатный архив песенных текстов, аккордов, табулатур и нот


Misc - Mira Loma High Fight Song - таба, видео

Регистрация Запомнить меня
Войти через:  Facebook Google Twitter Vk Yandex Mail.ru

Misc - Mira Loma High Fight Song - таба, видео

Печатать
Просмотров: 63
e|-5-3-------------3-5-------------------------------3-5-----3-3-55-3-------|
B|---------6---5-6-----6--6-5-3--5-6-3-1---1-1--6-56----6-66----------------|
G|--------------------------------------------------------------------------|
D|--------------------------------------------------------------------------|
A|--------------------------------------------------------------------------|
E|--------------------------------------------------------------------------|

e|-5-------3-5--------------3-h5---5-8-5-3----------------------------------|
B|---6-5-6-----6--6-5-3-5-6----------------6-6--3--35653-5-6----------------|
G|--------------------------------------------------------------------------|
D|--------------------------------------------------------------------------|
A|--------------------------------------------------------------------------|
E|--------------------------------------------------------------------------|
Добавлено: 02.03.2016
Вам также может быть интересно:
Другие материалы по этой песне:
  • Аккорды и текст

Страница создана 02.03.2016
http://primanota.ru/misc/mira-loma-high-fight-song-chords.htm
Привет, Гость.
Предлагаем пройти революционный курс по гитаре.
Подарок от PrimaNota.Ru, забирай!