PrimaNota.ru - самый крупный в мире бесплатный архив песенных текстов, аккордов, табулатур и нот


Misc - Miri It Is While Sumer Ilast - таба

Регистрация Запомнить меня
Войти через:  Facebook Google Twitter Vk Yandex Mail.ru

Misc - Miri It Is While Sumer Ilast - таба

Печатать
Просмотров: 83
-------------------------------------------------------------------------------
                 Miri it is while sumer ilast - Band Name
-------------------------------------------------------------------------------
Tabbed by: Ricardo Chanes
E-mail:chanesss123@gmail.com

Tuning:EADGBe

https://www.youtube.com/watch?v=7UvesKl8_W8

e|-5---5-5-------------3------3--1-----|-5---5-5-------------3------3--1-----|
B|----------3---5-5-6----5-1-------3--1|----------3---5-5-6----5-1-------3--1|
G|-------------------------------------|-------------------------------------|
D|-------------------------------------|-------------------------------------|
A|-------------------------------------|-------------------------------------|
E|-------------------------------------|-------------------------------------|

e|-5---5h6p5----3--5-------------------|-5---5h6p5----3--5-------------------|
B|------------6--------6p3---3----1----|------------6--------6p3---3----1----|
G|-------------------------------------|-------------------------------------|
D|-------------------------------------|-------------------------------------|
A|-------------------------------------|-------------------------------------|
E|-------------------------------------|-------------------------------------|

e|---------3---------------------------|-------------------------------------|
B|-1s6--5----6h3----3h0----1-----------|-------------------------------------|
G|-------------------------------------|-------------------------------------|
D|-------------------------------------|-------------------------------------|
A|-------------------------------------|-------------------------------------|
E|-------------------------------------|-------------------------------------|



************************************

| /   slide up
| \   slide down
| h   hammer-on
| p   pull-off
| ~   vibrato
| +   harmonic
| x   Mute note
| b   Bend
| pb  Pre-bend
| br  Bend release
| pbr Pre-bend release
| brb Bend release bend

************************************
Добавлено: 02.03.2016
Другие материалы по этой песне:
  • Аккорды и текст

Страница создана 02.03.2016
http://primanota.ru/misc/miri-it-is-while-sumer-ilast-chords.htm
Привет, Гость.
Предлагаем пройти революционный курс по гитаре.
Подарок от PrimaNota.Ru, забирай!