PrimaNota.ru - самый крупный в мире бесплатный архив песенных текстов, аккордов, табулатур и нот


Misc - Hands Of Hell - таба, видео

Регистрация Запомнить меня
Войти через:  Facebook Google Twitter Vk Yandex Mail.ru

Misc - Hands Of Hell - таба, видео

Печатать
Просмотров: 76
-------------------------------------------------------------------------------
                             Hands Of Hell - Misc
-------------------------------------------------------------------------------
Tabbed by:
E-mail:

Tuning: Standard (EADgbe)
intro
e|-----------------------------------------------------------------------------------|
B|-----------------------------------------------------------------------------------|
G|-----------------------------------------------------------------------------------|
D|-----------------------------------------------------------------------------------|
A|---------------------7/8---------------------4/5---------------------7/8\7\5\3/5\3-|
E|-0-0-0-0-0-0-0-0-0-0-5/6-0-0-0-0-0-0-0-0-0-0-2/3-0-0-0-0-0-0-0-0-0-0-5/6\5\3\1/3\1-|
PM * * * * * * * * * *     * * * * * * * * * *     * * * * * * * * * *

e|-----------------------------------------------------------------------------------|
B|-----------------------------------------------------------------------------------|
G|-----------------------------------------------------------------------------------|
D|---------------------7/8---------------------4/5---------------------7/8\7-5-------|
A|---------------------5/6---------------------2/3---------------------5/6\5-3-7-6-5-|
E|-0-0-0-0-0-0-0-0-0-0-----0-0-0-0-0-0-0-0-0-0-----0-0-0-0-0-0-0-0-0-0---------5-4-3-|
PM * * * * * * * * * *     * * * * * * * * * *     * * * * * * * * * * 


e|-----------------------------------------------------------------------------------|
B|-----------------------------------------------------------------------------------|
G|-----------------------------------------------------------------------------------|
D|---------------------7/8---------------------4/5---------------------4/5-----4/5---|
A|---------------------5/6-8-------------------2/3-5-------------------2/3-5\4-2/3-5-|
E|-0-0-0-0-0-0-0-0-0-0-----6-6-6-6-6-6-6-6-6-6-----3-3-3-3-3-3-3-3-3-3-----3\2-----3-|
PM * * * * * * * * * *       * * * * * * * * *       * * * * * * * * * 

Verses
e|------------------------------------------------------------------------------------------------------|
B|------------------------------------------------------------------------------------------------------|
G|------------------------------------------------------------------------------------------------------|
D|-------------------4/6-----4/6----------------------------9-----7-------------------------------------|
A|-4/6---------------2/4-6\5-2/4-7/8/9----------------11-10-7-9-8-5-5/7---------------5h6p5---5-4-------|
E|-2/4-4-4-4-4-4-4-4-----4\3-----5/6/7-7-7-7-7-7-7-7-/9--8----7-6---3/5-5-5-5-5-5-5-5-------6-----6-5-3-|
PM     * * * * * * *                   * * * * * * *                    * * * * * * * 

Chorus
e|-------------------------------------------------------------------------------|
B|-------------------------------------------------------------------------------|
G|-------------------------------------------------------------------------------|
D|---------------------------------------------------7----8---10----11-----------|
A|----4----6----7----6----7----4----6-------3/4/5----5----6---8-----9-----7/8/10-|
E|-00-2-00-4-00-5-00-4-00-5-00-2-00-4-0-000-1/2/3-00---00---00---00----00-5/6/8--|

Solo
e|-9b-9--------------9b--------------9-----------------10-8-10---8-10-12p10h12p10h13----13----13p10h13-15~-|
B|------11-8----8-11----11-8----8-11---11-8----8-11-12---------9---------------------10----10--------------|
G|-----------10--------------10-------------10-------------------------------------------------------------|
D|---------------------------------------------------------------------------------------------------------|
A|---------------------------------------------------------------------------------------------------------|
E|---------------------------------------------------------------------------------------------------------|


| /   slide up
| \   slide down
| h   hammer-on
| p   pull-off
| ~   vibrato
| +   harmonic
| x   Mute note
| b   Bend
| pb  Pre-bend
| br  Bend release
| pbr Pre-bend release
| brb Bend release bend

************************************
Добавлено: 02.03.2016
Другие материалы по этой песне:
  • Аккорды и текст

Страница создана 02.03.2016
http://primanota.ru/misc/hands-of-hell-chords.htm
Привет, Гость.
Предлагаем пройти революционный курс по гитаре.
Подарок от PrimaNota.Ru, забирай!