PrimaNota.ru - самый крупный в мире бесплатный архив песенных текстов, аккордов, табулатур и нот


Misc Your Songs - Erectum - Necromantic Ritual - таба

Регистрация Запомнить меня
Войти через:  Facebook Google Twitter Vk Yandex Mail.ru

Misc Your Songs - Erectum - Necromantic Ritual - таба

Печатать
Просмотров: 29
-------------------------------------------------------------------------------
                             Necromantic Ritual - Erectum
-------------------------------------------------------------------------------
Tabbed by: jdaniels23
E-mail: james.bond88@mail.ru

Song link: https://soundcloud.com/erectumofficial/necromantic-ritual
Tuning:Half-Step Down

. . = palm mute

Verse (play opening 4 power chords only one time in verse)
E ------------------------------------------------------------------|
B ------------------------------------------------------------------|
G ------------------------------------------------------------------|
D 4-5-6-7-----------------------------------------------------------|
A 2-3-4-5-2-2-2-2-2-2-2--------1h3-3h4-4 4-4-4-4-4-4-4-4-4-4--------|
E --------0-0-0-0-0-0-0-3-2-1 0--------2-2-2-2-2-2-2-2-2-2-2--------|
              . .   . .                    . .   . .   . .

Pre-Bridge
E -------------------------|
B -------------------------|
G -------------------------|
D -------------------------|
A 6-5-4-3------------------|
E 4-3-2-1------------------|
(tremolo picking)

Bridge
E -------------------------|
B -------------------------|
G -------------------------|
D --2--2--2-3-3------------|
A --1--1--1-2-2------------|
E 00-00-00-----------------|
  .. .. ..     (moderately fast)

Chorus
E -------------------------|
B -------------------------|
G -------------------------|
D --------3-3--------2-----|
A --------3-3--------2-----|
E -0-3-2-0----0-3-2-0------|
   . . . .    . . . .

Outro
E -------------------------|
B -------------------------|
G -------------------------|
D -------------------------|
A ---5-4-4-3-3-2-2-1-1-0---|
E 0-0---0---0---0---0------|
  . .   .   .   .   .

Outro pt.2
E -------------------------|
B 0-0-0--------------------|
G 0-0-0--------------------|
D 0-0-0--------------------|
A 1-1-1--2-----------------|
E 0-0-0--1-----------------|
(let last chord ring out)

Order of playing:
Verse (x8)
Pre-Bridge (x12)
Bridge (x8)
Chorus (x18)
Verse (x8)
Pre-Bridge (x12)
Bridge (x8)
Chorus (x18)
Outro (x10)
Outro pt.2 (x1)


************************************

| /   slide up
| \   slide down
| h   hammer-on
| p   pull-off
| ~   vibrato
| +   harmonic
| x   Mute note
| b   Bend
| pb  Pre-bend
| br  Bend release
| pbr Pre-bend release
| brb Bend release bend

************************************
Добавлено: 05.04.2016
Другие материалы по этой песне:
  • Аккорды и текст

Страница создана 05.04.2016
http://primanota.ru/misc-your-songs/erectum-necromantic-ritual-chords.htm
Привет, Гость.
Предлагаем пройти революционный курс по гитаре.
Подарок от PrimaNota.Ru, забирай!