PrimaNota.ru - самый крупный в мире бесплатный архив песенных текстов, аккордов, табулатур и нот


Misc Your Songs - Kurbit - Cowboys - таба

Регистрация Запомнить меня
Войти через:  Facebook Google Twitter Vk Yandex Mail.ru

Misc Your Songs - Kurbit - Cowboys - таба

Печатать
Просмотров: 28
-------------------------------------------------------------------------------
                                     Cowboys
-------------------------------------------------------------------------------
Tabbed by: Kurbit

Shapes used:
    D  F  C  G                           G  B
e|--0--0--0--0--|                    e|--x--x--|
B|--3--3--3--3--|                    B|--x--x--| 
G|--2--2--0--0--|                    G|--5--4--|
D|--0--3--2--0--| also power chords: D|--5--4--|
A|--x--0--3--2--|                    A|--3--2--|
E|--x--x--x--3--|                    E|--x--x--|

Note that lower case letters denote the direction of strum

   D D D D                   F F F F F F F F F                         C C C C C C C C C C
   d u u d                   d d u u d d u d u                         d d d u u d d u d u
e|-0-0-0-0-------------------0-0-0-0-0-0-0-0-0---------------------------0-0-0-0-0-0-0-0-0-----------------------|
B|-3-3-3-3-------------------3-3-3-3-3-3-3-3-3-------------------------3-3-3-3-3-3-3-3-3-3-----------------------|
G|-2-2-2-2-2-2p0------0-2h-2-2-2-2-2-2-2-2-2-2----------2--------------0-0-0-0-0-0-0-0-0-0------------------0-2h-|
D|-0-0-0-0-------0-3h------3-3-3-3-3-3-3-3-3-3-3-3p0----0-0-2h---------2-2-2-2-2-2-2-2-2-2------------2-2p0------|
A|-x-x-x-x-------------------0-0-0-0-0-0-0-0-0-------3h--------3-3p-3h-3-3-3-3-3-3-3-3-3-3-3-3p-3h---------------|
E|-x-x-x-x-------------------x-x-x-x-x-x-x-x-x---------------------------x-x-x-x-x-x-x-x-x---------3h------------|

   F       D D D D D D                   G G G G G G                  D D D F D              C C C C C
   d       d d u u d d                   d d d u d u                  d d d d d              d d d u d
e|-0-------0-0-0-0-0-0-------------------0-0-0-0-0-0------------------0-0-0-0-0--------------0-0-0-0-0-----------|
B|-3-------3-3-3-3-3-3-------------------3-3-3-3-3-3------------------3-3-3-3-3--------------3-3-3-3-3-----------|
G|-2-------2-2-2-2-2-2-2-2p0-0-2h--------0-0-0-0-0-0-------------0-2h-2-2-2-2-2-2-2p---------0-0-0-0-0-----------|
D|-3-3-3p0-0-0-0-0-0-0-------0-3h--------0-0-0-0-0-0--------0-2h------0-0-0-3-0------0-2h----2-2-2-2-2-----------|
A|-0-------x-x-x-x-x-x------------3p2----2-2-2-2-2-2---0-3h-----------x-x-x-0-x-----------3h-3-3-3-3-3-3-3p0-----|
E|-x-------x-x-x-x-x-x----------------3h-3-3-3-3-3-3-3----------------x-x-x-x-x--------------x-x-x-x-x-------0-3h|

   G G G G G           F      F      F   C C C C C C C C C C                                      C
   d d d u d           d      d      d   d d d u d u d u d u                                      d
e|---0-0-0-0-----------0------0------0---0-0-0-0-0-0-0-0-0-0--------------------------------------0----------|
B|---3-3-3-3-----------3------3------3---3-3-3-3-3-3-3-3-3-3-----------3------3------3------------3----------|
G|-0-0-0-0-0------0-2h-2-0-2h-2------2---0-0-0-0-0-0-0-0-0-0---------0-0------2-0-2h-2------------0----------|
D|-0-0-0-0-0-0-3h------3--------0-3h-3---2-2-2-2-2-2-2-2-2-2---2-2p0-----0-3h-3------3-3-3p0------2-2-2p0----|
A|-2-2-2---2-----------0---------------3-3-3-3-3-3-3-3-3-3-3-3-------------------------------0-3h-3-3-3p0-2h-|
E|-3-3-3---3-----------x-----------------x-x-x-x-x-x-x-x-x-x--------------------------------------x-------3h-|

   C B     C                       G G G            F                C C C C C C
   d d     d                       d u d            d                d d d u d u 
e|---------0-----------------------0-0-0------------0----------------0-0-0-0-0-0----------------|
B|---------3-----------------------3-3-3------------3----------------3-3-3-3-3-3----------------|
G|-5\4-----0-------0-2h-2-2p0------0-0-0------------2-0-2h-----------0-0-0-0-0-0-------2h-------|
D|-5\4-----2-2-2p0-0-3h-3-3p0------0-0-0------------3------0-3h------2-2-2-2-2-2-------3h-3-3p0-|
A|-3\2-2/3-3-3-3p0------------0-2h-2-2-2-------0-3h-------------0-3h-3-3-3-3-3-3-3-3p0----------|
E|---------x------------------0-3h-3-3-3-3-3p0-----------------------x-x-x-x-x-x----------------|




************************************

| /   slide up
| \   slide down
| h   hammer-on
| p   pull-off
| ~   vibrato
| +   harmonic
| x   Mute note
| b   Bend
| pb  Pre-bend
| br  Bend release
| pbr Pre-bend release 
| brb Bend release bend

************************************
Добавлено: 05.04.2016
Другие материалы по этой песне:
  • Аккорды и текст

Страница создана 05.04.2016
http://primanota.ru/misc-your-songs/kurbit-cowboys-chords.htm
Привет, Гость.
Предлагаем пройти революционный курс по гитаре.
Подарок от PrimaNota.Ru, забирай!