PrimaNota.ru - самый крупный в мире бесплатный архив песенных текстов, аккордов, табулатур и нот


Misc Your Songs - Kurbit - Sheep - таба

Регистрация Запомнить меня
Войти через:  Facebook Google Twitter Vk Yandex Mail.ru

Misc Your Songs - Kurbit - Sheep - таба

Печатать
Просмотров: 35
Уроки эстрадного вокала в Санкт-Петербурге
-------------------------------------------------------------------------------
                                Kurbit - Sheep
-------------------------------------------------------------------------------
Tabbed by: kurbit

Tuning: Drop D

Main Riffs:
e|-----------------------------------------------------|
B|-----------------------------------------------------|
G|-----------------------------------------------------|
D|---0-----6-5-0-555-4-0-444---0-----6-5-0-555-44-0-33-|
A|-----4-0-6-5-0-555-4-0-444-----4-0-6-5-0-555-44-0-33-|
D|-0-------6-5-0-555-4-0-444-0-------6-5-0-555-44-0-33-|

G|-------------------------------------------------|
D|-------------------------------------------------|
A|---0-4h-4-----------------0-4h-4-----------------|
D|-0--------6-45h55-34h44-0--------6-5555p-44p-33p-|


Solo:
Part 1:
e|-----------------------------|
B|-----------------------------|
G|-----------------------------|
D|-----------------------------|
A|-----------------------------|
D|-0-2h-3h-2-3h-2-3h-2-3h-2-3h-|

G|-----------------------------|
D|-----------------------------|
A|-----------------------------|
D|-0-2h-3h-2-3h-2-3h-2-3h-2-3h-|

Part 2:
e|-------------------------------------------------------------------------------|
B|-------------------------------------------------------------------------------|
G|-------------------------------------------------------------------------------|
D|-------------------------------------------------------------------------------|
A|----------------------------------------0-2h-3h-4-5h-6-7h-8-9h-9\5-5-3-0-2h-3h-|
D|-0-2h-3h-4-5h-6-7h-8-9h-9\5-5-3-0-2h-3h----------------------------------------|

G|---------------------------------------------------------------------|
D|---------------------------------------------------------------------|
A|-------------------------------------0-2-3-4-5-6-7-8-9-9p-5h-5p-3p-0-|
D|-0-2-3-4h-5h-6h-7h-8h-9h\5p-3p-0-2-3---------------------------------|

Part 3:
e|--------------------------0-1pb-1/7-7--7777br-----------------------4-5h-6-7h-10b\2p-|
B|---------------------5-7h---------------------------------4-5h-6-7h------------------|
G|----------------5-7h----------------------------4-5h-6-7h----------------------------|
D|-----------5-7h----------------------------------------------------------------------|
A|------5-7h------------------------------------0--------------------------------------|
D|-7-9h-----------------------------------------0--------------------------------------|

G|-------5/7~----------------------------------------------------4-5h-6-7h-10/12-6\2p-|
D|-----5/7---------------------------------------------4-5h-6-7h----------------------|
A|---5/7------10-11pb-11/17-17--17171717br---4-5h-6-7h--------------------------------|
D|-----------------------------------------0------------------------------------------|

Play:
Part 1
Part 2
Part 3
Part 3
Part 2
Part 1

Outro:
Very fast downward strums that only lightly hit the D string to make it just audible(or just play it)

Guitar:
e|--------------------------------------------------------------------------|
B|--------------------------------------------------------------------------|
G|-----------------------------------------------------------6b~-(let ring)-|
D|-0-------0-------0-------0------0------0----------------------------------|
A|-5-(x16)-4-(x16)-3-(x16)-2-(x8)-1-(x4)-0-(x4)-(Play-twice)----------------|
D|-0-------0-------0-------0------0------0----------------------------------|



************************************

| /   slide up
| \   slide down
| h   hammer-on
| p   pull-off
| ~   vibrato
| +   harmonic
| x   Mute note
| b   Bend
| pb  Pre-bend
| br  Bend release
| pbr Pre-bend release
| brb Bend release bend

************************************
Добавлено: 05.04.2016
Другие материалы по этой песне:
  • Аккорды и текст

Страница создана 05.04.2016
http://primanota.ru/misc-your-songs/kurbit-sheep-chords.htm
Привет, Гость.
Предлагаем пройти революционный курс по гитаре.
Подарок от PrimaNota.Ru, забирай!