PrimaNota.ru - самый крупный в мире бесплатный архив песенных текстов, аккордов, табулатур и нот


Misc Your Songs - Kurbit - La - таба

Регистрация Запомнить меня
Войти через:  Facebook Google Twitter Vk Yandex Mail.ru

Misc Your Songs - Kurbit - La - таба

Печатать
Просмотров: 32
-------------------------------------------------------------------------------
                                  Kurbit - L.A
-------------------------------------------------------------------------------
Tabbed by:
E-mail:

Tuning:

Main Riff:
Repeats all the way through very distorded electric with heavy palm muting
e|------|
B|------|
G|------|
D|-2233-|
A|-2233-|
D|-2233-|

Guitar two is overdriven with slight reverb

Riff 1:
e|--------------------------------------------------------------------------------------------------|
B|--------------------------------------------------------------------------------------------------|
G|---555555---9---11------1112-121212-13-13---------------------------------------------------------|
D|-4-555555-3-9-0-11----2-1112-121212-13-13-(strum wildly for one or two seconds whilst sliding up)-|
A|-4--------3-7-0-9-----2-9-10-101010-11-11---------------------------------------------------------|
D|-4--------3---0-------2---------------------------------------------------------------------------|

Riff 2:                                                           (hold bend until end of riff)
e|-----10-----------------7---77-6----8--7/8-101010---12---14b--13-14---151515-171717-18-1816-|
B|-8-9-----8-7------------7---77-6--9-8--7/8-101010---12---14b--13-14---151515-171717-18-1816-|
G|---------8-7-8----------7---77-6--9--------101010-------------------------------------------|
D|---------8-7-8----5/6-8-7---77-6-----------------------0------------------------------------|
A|-------------8----5/6-8---------------------------0-----------------------------------------|
D|------------------5/6-8---------------------------0-----------------------------------------|

Riff 3:
e|-----------------------------------------------------------------|
B|-----------------------------------------------------------------|
G|-----------------------------------------------------------------|
D|-5~~~~~~~~~-----4~~~~~~~~~-----2b-2b-0-2/3-33-1-14b/15b--/16b-15-|
A|-5~~~~~~~~~-----4~~~~~~~~~-----2b-2b-0-2/3-33-1-12b/13b--/14b-13-|
E|-5~~~~~~~~~-----4~~~~~~~~~-----2b-2b-0-2/3-33-1------------------|

Every 8th repeat of the main riff on guitar 1, guitar 2 plays one of the riffs.

Order:
Riff 1
Riff 1
Riff 2
Riff 3
Riff 2
Riff 3
Riff 1


************************************

| /   slide up
| \   slide down
| h   hammer-on
| p   pull-off
| ~   vibrato
| +   harmonic
| x   Mute note
| b   Bend
| pb  Pre-bend
| br  Bend release
| pbr Pre-bend release
| brb Bend release bend

************************************
Добавлено: 05.04.2016
Другие материалы по этой песне:
  • Аккорды и текст

Страница создана 05.04.2016
http://primanota.ru/misc-your-songs/kurbit-la-chords.htm
Привет, Гость.
Предлагаем пройти революционный курс по гитаре.
Подарок от PrimaNota.Ru, забирай!