PrimaNota.ru - самый крупный в мире бесплатный архив песенных текстов, аккордов, табулатур и нот


Misc Your Songs - Kurbit - More Noise - таба

Регистрация Запомнить меня
Войти через:  Facebook Google Twitter Vk Yandex Mail.ru

Misc Your Songs - Kurbit - More Noise - таба

Печатать
Просмотров: 27
-------------------------------------------------------------------------------
                                   hello
-------------------------------------------------------------------------------
Tabbed by: kurbit

Tuning: EADGBe

Rhythm:
Chords:
    E  G  B  A
e|--0--x--2--0--|
B|--0--x--4--2--|
G|--1--4--4--2--|
D|--2--5--4--2--|
A|--2--5--2--0--|
E|--x--3--x--x--|


Main Riff:
   E                 G               B                     A
e|-----------------------------------------------------------------------|
B|-----------------------------------------------------------------------|
G|-----------------------0---22-2-2-------------------6\4--------------6-|
D|------------22-2---------0-22-2-2----1-4h-4-1-----4-x\x-------2-2---6x-|
A|------------22-2-----2-----00-0-0--2----------2-2-2-4\2--0-4h-2---2-44-|
E|-0--0-4h-4--00-0---3--------------------------0-0-------------0--------|

Solos:
   E 
e|---------------0-3b-002p----------------------------|
B|-------0-2h-4h-----------42-40----------------------|
G|-2b(4)-------------------------2~-------------------|
D|----------------------------------------2b(3)-----2-|
A|--------------------------------------2-----------2-|
E|----------------------------------0-4---------4-0-0-|
   G
e|---------------0-2h-3h-2-2b(4)-2p-------------------------------------------------------|
B|----0-1h-1p-3b--------------------3-1-0-3h----------------------------------------------|
G|-2h----------------------------------------2p-----------------0-0---2b(3)-2b(4)---------|
D|------------------------------------------------5-2-22-2222-0-----0-----------------0-5-|
A|------------------------------------------------5-2-22-2222-----------------------2---5-|
E|----------------------------------------------3-3-0-00-0000---------------------3-----3-|
   B
e|-------------7-0-6-0-4-0-2-0-0--00-0-4b(5)-------------------------------------------|
B|-0-2h-4h-4-0-------------------------------------------------------------------------|
G|-----------------------------------------------------------------------00-3b-----4---|
D|-------------------------------------------2-------------------0-1h-4h-------410-x---|
A|-------------------------------------------2-0-2h-0-2-0-2h-0-2-------------------2-2-|
E|-------------------------------------------0---------------------------------------0-|
   A
e|------------------------------------------------------------------------------------------------------------|
B|-0-2h-5-5p-4b(5)--------------------------------------------------------------------------------------------|
G|-----------------2h-3p-0-0-3b(5)-33-3-3b\2-0-2-0-4-2/5b(7)---------------------22-2b------------------------|
D|----------------------------------------------------------------2-2-4b-2-2---2-------1-1p(hit D,G, B and e)-|
A|-----------------------------------------------------------4-4p-2-2-2b-2---2--------------------------------|
E|----------------------------------------------------------------0-0----0------------------------------------|


************************************

| /   slide up
| \   slide down
| h   hammer-on
| p   pull-off
| ~   vibrato
| +   harmonic
| x   Mute note
| b   Bend
| pb  Pre-bend
| br  Bend release
| pbr Pre-bend release
| brb Bend release bend

************************************
Добавлено: 05.04.2016
Другие материалы по этой песне:
  • Аккорды и текст

Страница создана 05.04.2016
http://primanota.ru/misc-your-songs/kurbit-more-noise-chords.htm
Привет, Гость.
Предлагаем пройти революционный курс по гитаре.
Подарок от PrimaNota.Ru, забирай!