PrimaNota.ru - самый крупный в мире бесплатный архив песенных текстов, аккордов, табулатур и нот


Misc Your Songs - Kurbit - Interlude Song - таба

Регистрация Запомнить меня
Войти через:  Facebook Google Twitter Vk Yandex Mail.ru

Misc Your Songs - Kurbit - Interlude Song - таба

Печатать
Просмотров: 40
Уроки эстрадного вокала в Санкт-Петербурге
-------------------------------------------------------------------------------
                             Interlude Song
-------------------------------------------------------------------------------

Tabbed by: kurbit

Strumming pattern:

1 & 2 & 3 & 4
ddduuddudu dx d~d xxxx

Chords
    D  Cadd9  G
e|--2--3------3-----------------------------------------------------------------------|
B|--3--3------3-----------------------------------------------------------------------|
G|--2--0------0-----------------------------------------------------------------------|
D|--0--2------0-----------------------------------------------------------------------|
A|--x--3------2-----------------------------------------------------------------------|
E|--x--x------3-----------------------------------------------------------------------|


Rhythm:
   D                    Cadd9  G
   D D D U U D D U D U   D   D D    D  D U D U
e|-2-2-2-2-2-2-2-2-2-2---0-----3-------3-3-3-3-|
B|-3-3-3-3-3-3-3-3-3-3---3-----3-------3-3-3-3-|
G|-2-2-2-2-2-2-2-2-2-2---0-----0-------0-0-0-0-|
D|-0-0-0-0-0-0-0-0-0-0---2-----0----0----0-0-0-|
A|-x-x-x-x-x-x-x-x-x-x---3---0-2----2----2-2-2-|
E|-x-x-x-x-x-x-x-x-x-x---x---0-3----3------3-3-|


Riff(goes over chords)
e|-----------------------------------13-10-13-10-------------------------------------|
B|----------------------------10-13h-------------13-10-------------------------------|
G|----------------------12-10--------------------------10-12h------------------------|
D|----------------10-12---------------------------------------10-12h-----------------|
A|-------10-11h-12---------------------------------------------------10-12h-11-------|
E|-10-13h----------------------------------------------------------------------13-10-|

Repeat forever


************************************

| /   slide up
| \   slide down
| h   hammer-on
| p   pull-off
| ~   vibrato
| +   harmonic
| x   Mute note
| b   Bend
| pb  Pre-bend
| br  Bend release
| pbr Pre-bend release
| brb Bend release bend

************************************
Добавлено: 05.04.2016
Другие материалы по этой песне:
  • Аккорды и текст

Страница создана 05.04.2016
http://primanota.ru/misc-your-songs/kurbit-interlude-song-chords.htm
Привет, Гость.
Предлагаем пройти революционный курс по гитаре.
Подарок от PrimaNota.Ru, забирай!