PrimaNota.ru - самый крупный в мире бесплатный архив песенных текстов, аккордов, табулатур и нот


Misc Your Songs - Brillian - Beuglecaust Minion Massacre - таба

Регистрация Запомнить меня
Войти через:  Facebook Google Twitter Vk Yandex Mail.ru

Misc Your Songs - Brillian - Beuglecaust Minion Massacre - таба

Печатать
Просмотров: 26
This is my song, and I am the sole author of it.

e|---------------------------------------------------------------------------|
B|---------------------------------------------------------------------------|
G|---------------------------------------------------------------------------|
D|-9-9-9-9-9--10-------------------------------------------------------------|
A|-7-7-7-7-7--8--------------------------------------------------------------|
E|-7-7-7-7-7--8--------------------------------------------------------------|

e|-----------------------------------------------------------------------------|
B|-----------------------------------------------------------------------------|
G|-----------------------------------------------------------------------------|
D|-2-2-2-2-2-2----5---4--------------------------------------------------------|
A|-2-2-2-2-2-2----x---x--------------------------------------------------------|
E|-0-0---0-0------3---2--------------------------------------------------------|
   * *   . .
e|-strum chords fast---------------------------------------------------------|
B|---------------------------------------------------------------------------|
G|-9---------5-------7------4-----4---4--------------------------------------|
D|-9---------5-------7------4-----4---4--------------------------------------|
A|-7---------3-------5------2-----2---2--------------------------------------|
E|-0-------------------------------------------------------------------------|

e|---------------------------------------------------------------------------|
B|---------------------------------------------------------------------------|
G|---------------------------------------------------------------------------|
D|-4--3--------------3-------------------------------------------------------|
A|-2--1--4--3--3--3--3-------------------------------------------------------|
E|-------2--1--1--1----------------------------------------------------------|
               .  .

e|---------------------------------------------------------------------------|
B|---------------------------------------------------------------------------|
G|---------------------------------------------------------------------------|
D|-4--3--------------2-------------------------------------------------------|
A|-2--1--4--2--2--2--2-------------------------------------------------------|
E|-------2--0--0--0----------------------------------------------------------|
            .  .  .
e|---------------------------------------------------------------------------|
B|---------------------------------------------------------------------------|
G|---------------------------------------------------------------------------|
D|-0--7--4--3--4--3--4--3-----0--7--4--3--4--3--6----------------------------|
A|-0--7--4--3--4--3--4--3-----0--7--4--3--4--3--6----------------------------|
E|-0--7--4--3--4--3--4--3-----0--7--4--3--4--3--6----------------------------|

e|---------------------------------------------------------------------------|
B|---------------------------------------------------------------------------|
G|---------------------------------------------------------------------------|
D|-0--7--4--3--4--3--4--3-----0--7--4--3--1--2--1----------------------------|
A|-0--7--4--3--4--3--4--3-----0--7--4--3--1--2--1----------------------------|
E|-0--7--4--3--4--3--4--3-----0--7--4--3--1--2--1----------------------------|
Добавлено: 05.04.2016
Другие материалы по этой песне:
  • Аккорды и текст

Страница создана 05.04.2016
http://primanota.ru/misc-your-songs/brillian-beuglecaust-minion-massacre-chords.htm
Привет, Гость.
Предлагаем пройти революционный курс по гитаре.
Подарок от PrimaNota.Ru, забирай!