PrimaNota.ru - самый крупный в мире бесплатный архив песенных текстов, аккордов, табулатур и нот


Misc Unsigned Bands - Zeek Power - Am I Wrong - таба

Регистрация Запомнить меня
Войти через:  Facebook Google Twitter Vk Yandex Mail.ru

Misc Unsigned Bands - Zeek Power - Am I Wrong - таба

Печатать
Просмотров: 97
-------------------------------------------------------------------------------
                             Am I Wrong - Zeek Power
-------------------------------------------------------------------------------
Tabbed by: LillaMartin
E-mail: RasmusSture@hotmail.se

Tuning: standard capo 5th fret.

Sins his looping all kinds of stuff i will be tabbing the main chords used 
from 1:50 in this video: 
https://www.youtube.com/watch?v=Di2q1yzjy-c

The chords his using is:

    G     C9   C    D    ?

e|--3-----3------------------------------------------------------------------|
B|--3-----3----1----3----5---------------------------------------------------|
G|--0-----0----0----0----0---------------------------------------------------|
D|--0-----2----2----4----4---------------------------------------------------|
A|--2-----3----3----5----5---------------------------------------------------|
E|---------------------------------------------------------------------------|

Not really sure i labeled them correct but aslong as you know where to put ur 
fingers you are ready for the tab! :) 

First thing his starting to loop on guitar goes like this:

e|---3--3--3--3--3--3--3--3/7--7--7/5--5--5--5--5----------------------------|
B|---5--5--5--5--5--5--5--5/8--8--8/7--7--7--7--7----------------------------|
G|---------------------------------------------------------------------------|
D|---------------------------------------------------------------------------|
A|---------------------------------------------------------------------------|
E|---------------------------------------------------------------------------|

Then his repeating this pattern throughout the song! With some variations on 
the e string. Sometimes he hold it down on 3fret/5fret sometimes he dont.
Its same pattern for 6minutes his allowed to mix it up. :) 

e|-------------------3-----------3----------5--------------------------------|
B|--------3----------3-----------1----------3----------3----------3----------|
G|-----0--------------------------------------------0-------------0----------|
D|---------------2-----------2-----------4--------------------2--------------|
A|--2---------3----------3-----------/5----------2---------3-----------------|
E|---------------------------------------------------------------------------|

e|-----------------------0---------------------------------------------------|
B|------------3----------5---------------------------------------------------|
G|---------0-----------------------------------------------------------------|
D|------2-------------4------------------------------------------------------|
A|---3-------------5---------------------------------------------------------|
E|---------------------------------------------------------------------------|

Any questions or corrections leave a comment below.

************************************

| /   slide up
| \   slide down
| h   hammer-on
| p   pull-off
| ~   vibrato
| +   harmonic
| x   Mute note
| b   Bend
| pb  Pre-bend
| br  Bend release
| pbr Pre-bend release
| brb Bend release bend

************************************
Добавлено: 29.06.2015
Другие материалы по этой песне:
  • Аккорды и текст

Страница создана 29.06.2015
http://primanota.ru/misc-unsigned-bands/zeek-power-am-i-wrong-chords.htm
Привет, Гость.
Предлагаем пройти революционный курс по гитаре.
Подарок от PrimaNota.Ru, забирай!