PrimaNota.ru - самый крупный в мире бесплатный архив песенных текстов, аккордов, табулатур и нот


Misc Unsigned Bands - To Right Our Wrongs - Oi Mate - таба

Регистрация Запомнить меня
Войти через:  Facebook Google Twitter Vk Yandex Mail.ru

Misc Unsigned Bands - To Right Our Wrongs - Oi Mate - таба

Печатать
Просмотров: 97
-------------------------------------------------------------------------------
                             OI MATE - To Right Our Wrongs
-------------------------------------------------------------------------------
Tabbed by:
E-mail:

Tuning: Drop B

INTRO/CHORUS

C#---------5-5-5-------5-0-8---------5-5-5-------5-0-8-----------------------|
G#---------6-6-6-------6-6-6---------6-6-6-------6-6-6-----------------------|
E|---------7-7-7-------7-7-7---------7-7-7-------7-7-7-----------------------|
B|---------------------------------------------------------------------------|
F#-000-000-------0-0-0-------000-000-------0-0-0-----------------------------|
B|-000-000-------0-0-0-------000-000-------0-0-0-----------------------------|
   *** ***       * * *       *** ***       * * *
C#---------------------------------------------------------------------------|
G#---------10-10-10-------10-10-10---------10-10-10----------13-13-13--------|
E|---------10-10-10-------10-10-10---------10-10-10----------12-12-12--------|
B|---------------------------------------------------------------------------|
F#-888-888----------8-8-8----------888-888----------10-10-10-----------------|
B|-888-888----------8-8-8----------888-888----------10-10-10-----------------|
   *** ***          * * *          *** ***          *  *  * 

C#---------5-5-5-------5-0-8---------5-5-5-------5-0-8-----------------------|
G#---------6-6-6-------6-6-6---------6-6-6-------6-6-6-----------------------|
E|---------7-7-7-------7-7-7---------7-7-7-------7-7-7-----------------------|
B|---------------------------------------------------------------------------|
F#-000-000-------0-0-0-------000-000-------0-0-0-----------------------------|
B|-000-000-------0-0-0-------000-000-------0-0-0-----------------------------|
   *** ***       * * *       *** ***       * * *
C#---------------------------------------------------------------------------|
G#---------10-10-10-------10-10-10---------10-10-10----------13-13-13--------|
E|---------10-10-10-------10-10-10---------10-10-10----------12-12-12--------|
B|---------------------------------------------------------------------------|
F#-888-888----------8-8-8----------888-888----------10-10-10-----------------|
B|-888-888----------8-8-8----------888-888----------10-10-10-----------------|
   *** ***          * * *          *** ***          *  *  * 

VERSE I

C#---------------------------------------------------------------------------|
G#---------------------------------------------------------------------------|
E|---------------------------------------------------------------------------|
B|---------------------------------------------------------------------------|
F#-000-000-0-0-0------7-8-000-000-0-0-0------7-8-----------------------------|
B|-000-000-0-0-0-0-10-----000-000-0-0-0-0-10---------------------------------|
   *** *** * * *          *** *** * * *
C#---------------------------------------------------------------------------|
G#---------------------------------------------------------------------------|
E|---------------------------------------------------------------------------|
B|--------------------------------------------------7------------------------|
F#-888-888-8-8-8------7-8-101010-101010-10-10-10------8-7--------------------|
B|-888-888-8-8-8-8-10-----101010-101010-10-10-10-10--------------------------|
   *** *** * * *          * * *  * * *  *  *  *

C#---------------------------------------------------------------------------|
G#---------------------------------------------------------------------------|
E|---------------------------------------------------------------------------|
B|---------------------------------------------------------------------------|
F#-000-000-0-0-0------7-8-000-000-0-0-0------7-8-----------------------------|
B|-000-000-0-0-0-0-10-----000-000-0-0-0-0-10---------------------------------|
   *** *** * * *          *** *** * * *
C#---------------------------------------------------------------------------|
G#---------------------------------------------------------------------------|
E|---------------------------------------------------------------------------|
B|--------------------------------------------------7------------------------|
F#-888-888-8-8-8------7-8-101010-101010-10-10-10------8-7--------------------|
B|-888-888-8-8-8-8-10-----101010-101010-10-10-10-10--------------------------|
   *** *** * * *          * * *  * * *  *  *  *

C#---------------------------------------------------------------------------|
G#---------------------------------------------------------------------------|
E|---------------------------------------------------------------------------|
B|---------------------------------------------------------------------------|
F#-000-000-8888777-00-00-8888777-000-000-8888777-00-00-8h12p8h12-7h10p7h10---|
B|-000-000---------00-00---------000-000---------00-00-----------------------|
   *** ***         ** **         *** ***         ** ** 

C#---------------------------------------------------------------------------|
G#---------------------------------------------------------------------------|
E|---------------------------------------------------------------------------|
B|---------------------------------------------------------------------------|
F#-000-000-8888777-00-00-8888777-000-000-8888777-00-00-8h12p8h12-7h10p7h10---|
B|-000-000---------00-00---------000-000---------00-00-----------------------|
   *** ***         ** **         *** ***         ** ** 

Guitar I only
C#---------------------------------------------------------------------------|
G#---------------------------------------------------------------------------|
E|---------------------------------------------------------------------------|
B|---------------------------------------------------------------------------|
F#-8h12p8h12-7h10p7h10-5h8p5h8-3h7p3h7-0~------------------------------------|
B|-------------------------------------0~------------------------------------|

Guitar II
C#------------------------------------------------------------------------------||
G#------------------------------------------------------------------------------||
E|------------------------------------------------------------------------------||
B|------------------------------------------------------------------------------||
F#-0------------------00--------0---------00~----------------pick-slide/////////||
B|-0------------------00--------0---------00~----------------///////////////////||
   *                  **        *         *                                      |
Guitar I                                                                         |
C#------------------------------------------------------------------------------||
G#------------------------------------------------------------------------------||
E|------------------------------------------------------------------------------||
B|------------------------------------------------------------------------------||
F#-5--5--5h7h8-7-5-7--------7h8h10-8-7-8--5--5--5h7h8-7-5-7--------7h8h10-8-7-8-||
B|--00-00-------------800800---------------00-00-------------800800-------------||

Both Guitar I & Guitar II
C#------------------------------------------------------------------------------|
G#------------------------------------------------------------------------------|
E|------------------------------------------------------------------------------|
B|------------------------------------------------------------------------------|
F#-5--5--5h7h8-7-5-7--------7h8h10-8-7-8--5--5--5h7h8-7-5-7--------7h8h10-8-7-8-|
B|--00-00-------------800800---------------00-00-------------800800-------------|
    ** **              ** **               ** **              ** **

C#------------------------------------------------------------------------------|
G#------------------------------------------------------------------------------|
E|------------------------------------------------------------------------------|
B|------------------------------------------------------------------------------|
F#-5--5--5h7h8-7-5-7--------7h8h10-8-7-8--5--5--5h7h8-7-5-7--------7h8h10-8-7-8-|
B|--00-00-------------800800---------------00-00-------------800800-------------|
    ** **              ** **               ** **              ** **

C#---------------------------------------------------------------------------------------
G#---------------------------------------------------------------------------------------
E|---------------------------------------------------------------------------------------
B|---------------------------------------------------------------------------------------
-12--12--12-10--10--10-13--13--13-12--12--12-12--12--12-10--10--10-13--13--13-12--12--12-
---00--00--0--00--00--0--00--00--0--00--00--0--00--00--0--00--00--0--00--00--0--00--00--0
   **  **  *  **  **  *  **  **  *  **  **  *  **  **  *  **  **  *  **  **  *  **  **  

C#---------------------------------------------------------------------------------------
G#---------------------------------------------------------------------------------------
E|---------------------------------------------------------------------------------------
B|---------------------------------------------------------------------------------------
-12--12--12-10--10--10-13--13--13-12--12--12-12--12--12-10--10--10-13--13--13-12--12--12-
---00--00--0--00--00--0--00--00--0--00--00--0--00--00--0--00--00--0--00--00--0--00--00--0
   **  **  *  **  **  *  **  **  *  **  **  *  **  **  *  **  **  *  **  **  *  **  **   

C#--------------------------------------------------------------------------------------|
G#--------------------------------------------------------------------------------------|
E|--------------------------------------------------------------------------------------|
B|--------------------------------------------------------------------------------------|
F#-12--12--12-10--10--10----------------------------------------------------------------|
B|---00--00--0--00--00--0-8888-7777-----------------------------------------------------|
     **  **  *  **  **  * 

**^^Back To chorus^^**

Verse II
C#---------------------------------------------------------------------------|
G#---------------------------------------------------------------------------|
E|---------------------------------------------------------------------------|
B|---------------------------------------------------------------------------|
F#-000-000-0-0-0------7-8-000-000------------7-8-----------------------------|
B|-000-000-0-0-0-0-10-----000-000-0-0-0-0-10---------------------------------|
   *** *** * * *          *** *** * * *
C#---------------------------------------------------------------------------|
G#---------------------------------------------------------------------------|
E|---------------------------------------------------------------------------|
B|--------------------------------------------------7------------------------|
F#-888-888-8-8-8------7-8-101010-101010-10-10-10------8-7--------------------|
B|-888-888-8-8-8-8-10-----101010-101010-10-10-10-10--------------------------|
   *** *** * * *          * * *  * * *  *  *  *

C#---------------------------------------------------------------------------|
G#---------------------------------------------------------------------------|
E|---------------------------------------------------------------------------|
B|---------7-----------7---------------7-----------7-------------------------|
F#-000-000---8-7-0-0-0---8-7-8-000-000---8-7-0-0-0---8-7-8-------------------|
B|-000-000-------0-0-0---------000-000-------0-0-0---------------------------|

C#---------------------------------------------------------------------------|
G#---------------------------------------------------------------------------|
E|---------------------------------------------------------------------------|
B|---------7-----------7---------------7-------------------------------------|
F#-888-888---8-7-8-8-8---8-7-8-888-888---8-7--10-10-10 88887777--------------|
B|-888-888-------8-8-8---------888-888--------10-10-10-----------------------|

BreakDown
C#---------------------------------------------------------------------------|
G#---------------------------------------------------------------------------|
E|---------------------------------------------------------------------------|
B|---------------------------------------------------------------------------|
F#-000-000-0-0-0--0-0-0--000-000-0-0-0--0-0-0--------------------------------|
B|-000-000-0-0-0--0-0-0--000-000-0-0-0--0-0-0--------------------------------|
   *** *** * * *  * * *  *** *** * * *  * * *
C#---------------------------------------------------------------------------|
G#---------------------------------------------------------------------------|
E|---------------------------------------------------------------------------|
B|---------------------------------------------------------------------------|
F#-000-000-0-0-0~--------000-000-0-0-0~--0-0-0--------------------------------|
B|-000-000-0-0-0~--------000-000-0-0-0~--1-1-1--------------------------------|
                                        * * *
Tempo Change
C#---------------------------------------------------------------------------|
G#---------------------------------------------------------------------------|
E|---------------------------------------------------------------------------|
B|---------------------------------------------------------------------------|
F#-000-000-0-0-0--0-0-0-0--000-000-0-0-0--0-0-0-0----------------------------|
B|-000-000-0-0-0--1-1-1-1--000-000-0-0-0--1-1-1-1----------------------------|
   *** *** * * *  * * * *  *** *** * * *  * * * *

C#---------------------------------------------------------------------------|
G#---------------------------------------------------------------------------|
E|---------------------------------------------------------------------------|
B|---------------------------------------------------------------------------|
F#-000-000-0-0-0--0-0-0-0--000-000-0-0-0--0-0-0-0-0~-------------------------|
B|-000-000-0-0-0--1-1-1-1--000-000-0-0-0--1-1-1-1-0~-------------------------|
   *** *** * * *  * * * *  *** *** * * *  * * * *

||END||

************************************

| /   slide up
| \   slide down
| h   hammer-on
| p   pull-off
| ~   vibrato
| +   harmonic
| *   Mute note

************************************
Добавлено: 11.07.2015
Другие материалы по этой песне:
  • Аккорды и текст

Страница создана 11.07.2015
http://primanota.ru/misc-unsigned-bands/to-right-our-wrongs-oi-mate-chords.htm
Привет, Гость.
Предлагаем пройти революционный курс по гитаре.
Подарок от PrimaNota.Ru, забирай!