PrimaNota.ru - самый крупный в мире бесплатный архив песенных текстов, аккордов, табулатур и нот


Misc Unsigned Bands - With Confidence - Tonight - таба

Регистрация Запомнить меня
Войти через:  Facebook Google Twitter Vk Yandex Mail.ru

Misc Unsigned Bands - With Confidence - Tonight - таба

Печатать
Просмотров: 98
-------------------------------------------------------------------------------
                             TONIGHT - With Confidence
-------------------------------------------------------------------------------
Tabbed by: A.J. Booker

Tuning: Standard (EADGBe)

Intro: (Play the whole thing twice)
e|-13-10----10--13-10----10--------------------------------------------------|
B|-------11-----------11-----11h13-13-13-13-13-13-13-13----------------------|
G|---------------------------------------------------------------------------|
D|---------------------------------------------------------------------------|
A|---------------------------------------------------------------------------|
E|---------------------------------------------------------------------------|

e|-13-10----10--13-10----10--------------------------------------------------|
B|-------11-----------11-----11h13-13-13-13-13-13-13-13----------------------|
G|---------------------------------------------------------------------------|
D|---------------------------------------------------------------------------|
A|---------------------------------------------------------------------------|
E|---------------------------------------------------------------------------|

e|-13-10----10--13-10----10--------------------------------------------------|
B|-------11-----------11-----11h13-13-13-13-13-13-13-13----------------------|
G|---------------------------------------------------------------------------|
D|---------------------------------------------------------------------------|
A|---------------------------------------------------------------------------|
E|---------------------------------------------------------------------------|

e|-13-10----10--13-10----10----------------------------3---------------------|
B|-------11------------11----11h13-13-13-13------------4---------------------|
G|------------------------------------------12-12-12---3---------------------|
D|-----------------------------------------------------5---------------------|
A|-----------------------------------------------------3---------------------|
E|-----------------------------------------------------3-(Let it ring)-------|

*Bass Break*

0:37-0:51
e|---------------------------------------------------------------------------|
B|-----6-----6-(6)-----6-----6-(6)------6-----6-(6)--------------------------|
G|-5h7---5h7-------5h7---5h7--------5h7---5h7-------5-7-5-3------------------|
D|---------------------------------------------------------------------------|
A|---------------------------------------------------------------------------|
E|---------------------------------------------------------------------------| x2

Pre Chorus:
e|-3---6-----------------3---6---------------6-6-6-6-------------------------|
B|-4---8-----------------4---8---------------8-8-8-8-------------------------|
G|-3---8-----------------3---8---------------8-8-8-8-------------------------|
D|-5---8-----------------5---8---------------8-8-8-8-------------------------|
A|-3---6-----------------3---6---------------6-6-6-6-------------------------|
E|-3---6-(Let it Ring)---3---6-(Let it Ring)-6-6-6-6-------------------------|

Chorus:
e|-1----3---3-----6---| The strumming pattern just follows the lyrics, it is fairly simple,
B|-3----4---3-----8---| just annoying to write out, but its those chords in that order.
G|-3----3---3-----8---|
D|-3----5---3-----8---|
A|-1----3---5-----6---|
E|-1----3---3-----6---| x4

Intro Again: (Play the whole thing twice)
e|-13-10----10--13-10----10--------------------------------------------------|
B|-------11-----------11-----11h13-13-13-13-13-13-13-13----------------------|
G|---------------------------------------------------------------------------|
D|---------------------------------------------------------------------------|
A|---------------------------------------------------------------------------|
E|---------------------------------------------------------------------------|

e|-13-10----10--13-10----10--------------------------------------------------|
B|-------11-----------11-----11h13-13-13-13-13-13-13-13----------------------|
G|---------------------------------------------------------------------------|
D|---------------------------------------------------------------------------|
A|---------------------------------------------------------------------------|
E|---------------------------------------------------------------------------|

e|-13-10----10--13-10----10--------------------------------------------------|
B|-------11-----------11-----11h13-13-13-13-13-13-13-13----------------------|
G|---------------------------------------------------------------------------|
D|---------------------------------------------------------------------------|
A|---------------------------------------------------------------------------|
E|---------------------------------------------------------------------------|

e|-13-10----10--13-10----10--------------------------------------------------|
B|-------11------------11----11h13-13-13-13----------------------------------|
G|------------------------------------------12-12-12-------------------------|
D|---------------------------------------------------------------------------|
A|---------------------------------------------------------------------------|
E|---------------------------------------------------------------------------|

Verse:
e|-----------------------------------------|
B|-----------------------------------------|
G|-----------------------------------------|
D|-88888888-55555555-33333333-55555555-----|
A|-88888888-55555555-33333333-55555555-----|
E|-66666666-33333333-11111111-33333333-----| x2

Pre Chorus:
e|-3---6-----------------3---6---------------6-6-6-6-------------------------|
B|-4---8-----------------4---8---------------8-8-8-8-------------------------|
G|-3---8-----------------3---8---------------8-8-8-8-------------------------|
D|-5---8-----------------5---8---------------8-8-8-8-------------------------|
A|-3---6-----------------3---6---------------6-6-6-6-------------------------|
E|-3---6-(Let it Ring)---3---6-(Let it Ring)-6-6-6-6-------------------------|

Chorus:
e|-1----3---3-----6---|
B|-3----4---3-----8---|
G|-3----3---3-----8---|
D|-3----5---3-----8---|
A|-1----3---5-----6---|
E|-1----3---3-----6---| x4

Bridge: (I'm not 100% sure about this part
e|-13-13-13-13-13-13-13-13-10-10-10-10-10-10-10-10--13-10-10-13-10-----------|
B|-----------------------------------------------------------------11--------|
G|---------------------------------------------------------------------------|
D|---------------------------------------------------------------------------|
A|---------------------------------------------------------------------------|
E|---------------------------------------------------------------------------|x2

e|13-10----10--13-10----10--13---13-10----10--13-10----10------13-10----10--13-10----10--13--13-10-8---|
B|------11-----------11----------------11------------11----11--------11-----------11-----------------12|
G|-----------------------------------------------------------------------------------------------------|
D|-----------------------------------------------------------------------------------------------------|
A|-----------------------------------------------------------------------------------------------------|
E|-----------------------------------------------------------------------------------------------------|x2


e|-3--------------3----------------------------------------------------------|
B|-4--------------4----------------------------------------------------------|
G|-3--------------3----------------------------------------------------------|
D|-5--------------5----------------------------------------------------------|
A|-3--------------3----------------------------------------------------------|
E|-3-(Let ring)---3-(Let ring)-----------------------------------------------|

*Bass Solo*

Chorus:
e|-1----3---3-----6---|
B|-3----4---3-----8---|
G|-3----3---3-----8---|
D|-3----5---3-----8---|
A|-1----3---5-----6---|
E|-1----3---3-----6---| x4

Outro:
e|-13-10----10--13-10----10--------------------------------------------------|
B|-------11-----------11-----11h13-13-13-13-13-13-13-13----------------------|
G|---------------------------------------------------------------------------|
D|---------------------------------------------------------------------------|
A|---------------------------------------------------------------------------|
E|---------------------------------------------------------------------------| x3

e|-13-10----10--13-10----10--------------------------------------------------|
B|-------11------------11----11h13-13-13-13----------------------------------|
G|------------------------------------------12b------------------------------|
D|---------------------------------------------------------------------------|
A|---------------------------------------------------------------------------|
E|---------------------------------------------------------------------------|


************************************

| /   slide up
| \   slide down
| h   hammer-on
| p   pull-off
| ~   vibrato
| +   harmonic
| x   Mute note
| b   Bend
| pb  Pre-bend
| br  Bend release
| pbr Pre-bend release
| brb Bend release bend

************************************
Добавлено: 11.07.2015
Другие материалы по этой песне:
  • Аккорды и текст

Страница создана 11.07.2015
http://primanota.ru/misc-unsigned-bands/with-confidence-tonight-chords.htm
Привет, Гость.
Предлагаем пройти революционный курс по гитаре.
Подарок от PrimaNota.Ru, забирай!