PrimaNota.ru - самый крупный в мире бесплатный архив песенных текстов, аккордов, табулатур и нот


Misc Unsigned Bands - Tyler Watson - таба

Регистрация Запомнить меня
Войти через:  Facebook Google Twitter Vk Yandex Mail.ru

Misc Unsigned Bands - Tyler Watson - таба

Печатать
Просмотров: 79
-------------------------------------------------------------------------------
                             Themed - Tyler Watson
-------------------------------------------------------------------------------
Tabbed by:
E-mail:

Tuning:

e|-4------4--4-------4----4-4-4-4-4---------------------4-4-4-4-4----4-------|
B|---1---------1---------------------1-1-------------------------------------|
G|---------------------------------------------------------------------------|
D|-------2---------2-----------------------------2-2-2-----------------------|
A|-3-3-2--3--3-3-2---3----3-3-3-3-3--3-3---2-2-2--------3-3-3-3-3----3-------|
E|-2------2--2-------2----2-2-2-2-2---------------------2-2-2-2-2----2-------|

e|-4-4-4-4-4---------------------4-4-4-4-4----4------------------------------|
B|------------1-1------------------------------------------------------------|
G|---------------------------------------------------------------------------|
D|------------------------2-2-2----------------------------------------------|
A|-3-3-3-3-3--3-3---2-2-2--------3-3-3-3-3----3------------------------------|
E|-2-2-2-2-2---------------------2-2-2-2-2----2------------------------------|

e|-4-4-4-4-4---------------------4-4-4-4-4----4------------------------------|
B|------------1-1------------------------------------------------------------|
G|---------------------------------------------------------------------------|
D|------------------------2-2-2----------------------------------------------|
A|-3-3-3-3-3--3-3---2-2-2--------3-3-3-3-3----3------------------------------|
E|-2-2-2-2-2---------------------2-2-2-2-2----2------------------------------|

e|-4-----------4----4-----------4--------------------------------------------|
B|----1----------------1-----------------------------------------------------|
G|---------------------------------------------------------------------------|
D|----------2----------------2-----------------------------------------------|
A|-3--3--2-----3----3--3--2-----3--------------------------------------------|
E|-2-----------2----2-----------2--------------------------------------------| 

************************************

| /   slide up
| \   slide down
| h   hammer-on
| p   pull-off
| ~   vibrato
| +   harmonic
| x   Mute note
| b   Bend
| pb  Pre-bend
| br  Bend release
| pbr Pre-bend release
| brb Bend release bend

************************************
Добавлено: 11.07.2015
Другие материалы по этой песне:
  • Аккорды и текст

Страница создана 11.07.2015
http://primanota.ru/misc-unsigned-bands/tyler-watson-chords.htm
Привет, Гость.
Предлагаем пройти революционный курс по гитаре.
Подарок от PrimaNota.Ru, забирай!