PrimaNota.ru - самый крупный в мире бесплатный архив песенных текстов, аккордов, табулатур и нот


Misc Unsigned Bands - Twopointeight - Martha Street - таба

Регистрация Запомнить меня
Войти через:  Facebook Google Twitter Vk Yandex Mail.ru

Misc Unsigned Bands - Twopointeight - Martha Street - таба

Печатать
Просмотров: 80
-------------------------------------------------------------------------------
                             SONG NAME - Band Name
-------------------------------------------------------------------------------
Tabbed by: bl_nkenship
E-mail: gubugga97@gmail.com

Tuning: Standard

Intro:
e|---------------------------------------------------------------------------|
B|---------------------------------------------------------------------------|
G|---------------------------------------------------------------------------|
D|--888888888888888888888888888888888888888888888888-------------------------|
A|--888888888888888888888888888888888888888888888888-------------------------|
E|--666666666666666666666666666666666666666666666666-------------------------|


Verse:
e|---------------------------------------------------------------------------|
B|---------------------------------------------------------------------------|
G|------------------------------------88888888-------------------------------|
D|--888888888888888888888888-55555555-88888888-8888888888888888--------------|
A|--888888888888888888888888-55555555-66666666-8888888888888888--------------|
E|--666666666666666666666666-33333333----------6666666666666666--------------|


Chorus:
e|---------------------------------------------------------------------------|
B|---------------------------------------------------------------------------|
G|------------------------------------5555555555555555-8888888888888888------|
D|--5555555555555555-8888888888888888-5555555555555555-8888888888888888------|
A|--5555555555555555-8888888888888888-3333333333333333-6666666666666666------|
E|--3333333333333333-6666666666666666----------------------------------------|

e|---------------------------------------------------------------------------|
B|---------------------------------------------------------------------------|
G|------------------------------------5555555555555555-8888888888888888------|
D|--5555555555555555-8888888888888888-5555555555555555-8888888888888888------| 
A|--5555555555555555-8888888888888888-3333333333333333-6666666666666666------|
E|--3333333333333333-6666666666666666----------------------------------------|

e|---------------------------------------------------------------------------|
B|---------------------------------------------------------------------------|
G|--8888888888888888---------------------------------------------------------|
D|--8888888888888888---------------------------------------------------------|
A|--6666666666666666---------------------------------------------------------|
E|---------------------------------------------------------------------------|

Post Chorus:
e|---------------------------------------------------------------------------|
B|---------------------------------------------------------------------------|
G|-----7-----7-----7-----7-----7-----7-----7-----7---------------------------|
D|---8-----8-----8-----8-----8-----8-----8-----8-----------------------------|
A|-------------0-----------------------0-------------------------------------|
E|-6-----6-----------0-----6-----6-----------0-------------------------------|

Little Riff Thingy:
    DD   DDD   DGGG   D
e|--22-x-222-x-2333-x-2------------------------------------------------------|
B|--33-x-333-x-3333-x-3------------------------------------------------------|
G|--22-x-222-x-2----x-2------------------------------------------------------|
D|-----x-----x------x--------------------------------------------------------|
A|-----x-----x--222-x--------------------------------------------------------|
E|-----x-----x--333-x--------------------------------------------------------|

Solo
e|----------------------------------------------------77-5-3-1---------------|
B|--8-6~---6-8-6~---6-8-6~---6-888-6---6-8-6---6-8-6--77-5-3-1---------------|
G|-------8--------8--------8---------8-------8-------------------------------|
D|---------------------------------------------------------------------------|
A|---------------------------------------------------------------------------|
E|---------------------------------------------------------------------------|

e|---------------------------------------------------------------------------|
B|---------------------------------------------------------------------------|
G|---------------------------------------------------------------------------|
D|--------------------0-0-----------------------0-0-----------0-0-----------0|
A|-1-1---1-1-1------1-----1---1-1---1-1-1-----1-----1-------1-----1-------1--|
E|-----3--------3-3---------3-----3--------3----------3-3-3---------3-3-3----|


e|----------------------------------2----------------------------------------|
B|-------------------------------------4--2--0--4-6-0----------2-3-2-4-4-4-6-|
G|-------------------------------2b-------------------0p-2h-0p---------------|
D|-0-------------------------------------------------------------------------|
A|---1---1-1-1-1-1-1-1-1-1~--------------------------------------------------|
E|-----3---------------------------------------------------------------------|

e|---------------------------------------------------------------------------|
B|-6-6b-6-6-6-4-4-4-2-4-4-2--------------------------------------------------|
G|---------------------------------------------------------------------------|
D|---------------------------------------------------------------------------|
A|---------------------------------------------------------------------------|
E|---------------------------------------------------------------------------|

Outro:
e|---------------------------------------------------------------------------|
B|---------------------------------------------------------------------------|
G|-------------------8888888888888888----------------------------------------|
D|--8888888888888888-8888888888888888-5555555555555555-3333333333333333------|
A|--8888888888888888-6666666666666666-5555555555555555-3333333333333333------|
E|--6666666666666666------------------3333333333333333-1111111111111111------|

************************************

| /   slide up
| \   slide down
| h   hammer-on
| p   pull-off
| ~   vibrato
| +   harmonic
| x   Mute note
| b   Bend
| pb  Pre-bend
| br  Bend release
| pbr Pre-bend release
| brb Bend release bend

************************************
Добавлено: 11.07.2015
Другие материалы по этой песне:
  • Аккорды и текст

Страница создана 11.07.2015
http://primanota.ru/misc-unsigned-bands/twopointeight-martha-street-chords.htm
Привет, Гость.
Предлагаем пройти революционный курс по гитаре.
Подарок от PrimaNota.Ru, забирай!