PrimaNota.ru - самый крупный в мире бесплатный архив песенных текстов, аккордов, табулатур и нот


Misc Unsigned Bands - Why Do You Love Me - Plaid Gig - таба, видео

Регистрация Запомнить меня
Войти через:  Facebook Google Twitter Vk Yandex Mail.ru

Misc Unsigned Bands - Why Do You Love Me - Plaid Gig - таба, видео

Печатать
Просмотров: 91
Уроки эстрадного вокала в Санкт-Петербурге
-------------------------------------------------------------------------------
                             Why Do You Love Me - Plaid Gig
-------------------------------------------------------------------------------
Tabbed by: Christian Bartram
E-mail: cbartram3@gmail.com

Tuning: Standard

Intro and verses

e|-------------------------------------------------------------------------------|
B|---------------------------------------------6---------------------------------|
G|-------5------------0-----------4----------7---7-------------------------------|
D|-----7---7--------2---2-------5---5------7------7------------------------------| Repeat 2x
A|---7------7-----2------2----5------5---5---------5-----------------------------|
E|-5---------5--0---------0-3---------3------------------------------------------|

Chorus
   Am       Em                     G         Dm
e|-5-x-5\---0-x-0------------------3-x--3\---5-x-5-------------------------------|
B|-5-x-5\---0-x-0------------------3-x--3\---5-x-5-------------------------------|
G|-5-x-5\---0-x-0------------------4-x--4\---7-x-7-------------------------------|
D|-7-x-7\---2-x-2------------------5-x--5\---7-x-7-------------------------------|
A|-7-x-7\---2-x-2------^3p2--------5-x--5\---5-x-5-------------------------------|
E|-5-x-5\---0-x-0--0-0------3p0----3-x--3\---------------------------------------|

Pre Chorus
(Palm Mute Chords)
                                Release Palm mute here
e|-5-5-5-5-5-5--0------3--------5------------------------------------------------|
B|-5-5-5-5-5-5--0------3--------5------------------------------------------------|
G|-5-5-5-5-5-5--0------4--------7-x8---------------------------------------------|
D|-7-7-7-7-7-7--2-x6---5- x6----7------------------------------------------------|
A|-7-7-7-7-7-7--2------5--------5------------------------------------------------|
E|-5-5-5-5-5-5--0------3--------0------------------------------------------------|

First Guitar Solo

im not sure if its 100% correct but its in the A minor pentatonic scale so just play 
around with that youll get it

e|--------------------------------------5----5---5--5-----------------------------------------------|
B|------------------------------------8b--8b---8b---8b--5-------------------------------------------|
G|-7b9-7b9--^7brp5--^7~~-7p5--------5h7---------------------7brp5-7-7p5------------------5-5-7brp5--|
D|-------------------------7--5h7-----------------------------------7~~--7h5 7h5--------------------|
A|--------------------------------------------------------------------------------------------------|
E|--------------------------------------------------------------------------------------------------|

e|-----------5----5-5-8b~~--8p5----5--------------------------------------------------------------------|
B|-8-8-8p5---8b~~---------------8----8p5----------------------------------------------------------------|
G|---------------------------------------7p5-7brp5------------------------------------------------------|
D|------------------------------------------------7--7-7p5----------------------------------------------|
A|---------------------------------------------------------7~~------------------------------------------|
E|------------------------------------------------------------------------------------------------------|

Second Guitar Solo

e|-----------------------------------------------------------------------------------18p17p15-----------|
B|-----------------------------------------------------------15-------15-------15--------------18p17p15-|
G|--17b19r~~-17b19r~~-17brp15-17-17p15-----------------17b19----17b19---17b19---------------------------|
D|---------------------------------17------------15h17--------------------------------------------------|
A|-----------------------------------------15h17--------------------------------------------------------|
E|------------------------------------------------------------------------------------------------------|

the last bend is pretty far up there

e|------------15-------18b22----------------------------------------------------------------------------|
B|18p15-18b20----18r20----------------------------------------------------------------------------------|
G|------------------------------------------------------------------------------------------------------|
D|------------------------------------------------------------------------------------------------------|
A|------------------------------------------------------------------------------------------------------|
E|------------------------------------------------------------------------------------------------------|


Outro
                                                                on the last time finish with an A Major
e|-------------------------------------------------------------|---5---------------|
B|---------------------------------------------6---------------|---5---------------|
G|-------5------------0-----------4----------7---7-------------|---6---------------|
D|-----7---7--------2---2-------5---5------7------7------------|---7---------------| Repeat 4x
A|---7------7-----2------2----5------5---5---------5-----------|---7---------------|
E|-5---------5--0---------0-3---------3------------------------|---5---------------|


************************************

| /   slide up
| \   slide down
| h   hammer-on
| p   pull-off
| ~   vibrato
| +   harmonic
| x   Mute note
| b   Bend
| pb  Pre-bend
| br  Bend release
| pbr Pre-bend release
| brb Bend release bend
| ^   Pinch Bend

************************************
Добавлено: 01.10.2013
Другие материалы по этой песне:
  • Аккорды и текст

Страница создана 01.10.2013
http://primanota.ru/misc-unsigned-bands/why-do-you-love-me-plaid-gig-chords.htm
Привет, Гость.
Предлагаем пройти революционный курс по гитаре.
Подарок от PrimaNota.Ru, забирай!