PrimaNota.ru - самый крупный в мире бесплатный архив песенных текстов, аккордов, табулатур и нот


Misc Unsigned Bands - Worthwhile - Good Guys Win - таба

Регистрация Запомнить меня
Войти через:  Facebook Google Twitter Vk Yandex Mail.ru

Misc Unsigned Bands - Worthwhile - Good Guys Win - таба

Печатать
Просмотров: 53
-------------------------------------------------------------------------------
                             Good Guys Win - Worthwhile
-------------------------------------------------------------------------------
E-mail: grlushington@yahoo.com

Tuning: Drop C: CGCFAD

Intro:
Guitar 1:
D|---------------------------------------------------------------------------------|
A|---------------------------------------------------------------------------------|
F|---------------------------------------------------------------------------------|
C|--0-0-0-0------------7-----4--4-------------2-2-2-2--4--5--0-0-0-0---0-0-0-+5----|
G|--0-0-0-0-9-----4h5--------4--4-------------2-2-2-2--4--5--0-0-0-0---0-0-0-+5----|
C|--0-0-0-0-----0------------4--4-------------2-2-2-2--4--5--0-0-0-0---0-0-0-+5----|

Guitar 2:
D|-----------------------------------------------------------------------------------|
A|-----------------------------------------------------------------------------------|
F|-----------------------------------------------------------------------------------|
C|--0-0-0-0----------------------------------2-2-2-2---------------------------------|
G|--0-0-0-0----------------------------------2-2-2-2---------------------------------|
C|--0-0-0-0----------------------------------2-2-2-2---------------------------------|

Guitar 1:
D|-------------------------------------------------------------------------------|
A|-------------------------------------------------------------------------------|
F|-------------------------------------------------------------------------------|
C|--0-0-0-0------------7-----4--4---4h5p0----9--9--9--11-11-11-7-----------------|
G|--0-0-0-0-9-----4h5--------4--4---4h5p0----7--7--7--9--9--9--5-----------------|
C|--0-0-0-0-----0------------4--4---4h5p0----------------------------------------|


Guitar 2:
D|-------------------------------------------------------------------------------|
A|-------------------------------------------------------------------------------|
F|-------------------------------------------------------------------------------|
C|--0-0-0-0----------------------------------2--2--2--4--4--4--5-----------------|
G|--0-0-0-0----------------------------------2--2--2--4--4--4--5-----------------|
C|--0-0-0-0----------------------------------2--2--2--4--4--4--5-----------------|

After this is played once, the two guitars play this simultaneously:

D|---------------------------------------------------------------------------------|
A|---------------------------------------------------------------------------------|
F|---------------------------------------------------------------------------------|
C|--0-0-0-0------------7-----4--4---4h5p0----2-2-2-2---4--5--0-0-0-0---0-0-0-+5----|
G|--0-0-0-0-9-----4h5--------4--4---4h5p0----2-2-2-2---4--5--0-0-0-0---0-0-0-+5----|
C|--0-0-0-0-----0------------4--4---4h5p0----2-2-2-2---4--5--0-0-0-0---0-0-0-+5----|


D|-------------------------------------------------------------------------------|
A|-------------------------------------------------------------------------------|
F|-------------------------------------------------------------------------------|
C|--0-0-0-0------------7-----4--4---4h5p0----9--9--9--11-11-11-7-----------------|
G|--0-0-0-0-9-----4h5--------4--4---4h5p0----7--7--7--9--9--9--5-----------------|
C|--0-0-0-0-----0------------4--4---4h5p0----------------------------------------|

Until the last bit, when guitar 2 plays this:

D|-------------------------------------------------------------------------------|
A|-------------------------------------------------------------------------------|
F|-------------------------------------------------------------------------------|
C|-------------------------------------------2--2--2--4--4--4--5-----------------|
G|-------------------------------------------2--2--2--4--4--4--5-----------------|
C|-------------------------------------------2--2--2--4--4--4--5-----------------|

Guitar 1:
D|---------------------------------------------------------------------------|
A|---------------------------------------------------------------------------|
F|---------------------------------------------------------------------------|
C|--19--19--19--18--18--18--16--16--16--14--14--14--14--14--14--14--14-------|
G|--17--17--17--16--16--16--14--14--14--12--12--12--12--12--12--12--12-------|
C|---------------------------------------------------------------------------|
It's our time to rise; it's our time to shine,

Guitar 2: Let Ring
D|---------------------------------------------------------------------------|
A|---------------------------------------------------------------------------|
F|---------------------------------------------------------------------------|
C|--0------------------------------------------------------------------------|
G|--0------------------------------------------------------------------------|
C|--0------------------------------------------------------------------------|

Guitar 1:
D|---------------------------------------------------------------------------|
A|---------------------------------------------------------------------------|
F|---------------------------------------------------------------------------|
C|--19--19--19--18--18--18--14--14--14--12-12--12--12--12--12--12--12--------|
G|--17--17--17--16--16--16--12--12--12--10-10--10--10--10--10--10--10--------|
C|---------------------------------------------------------------------------|
It's our time to take back what's yours and mine.

Guitar 2: Let Ring
D|---------------------------------------------------------------------------|
A|---------------------------------------------------------------------------|
F|---------------------------------------------------------------------------|
C|--0------------------------------------------------------------------------|
G|--0------------------------------------------------------------------------|
C|--0------------------------------------------------------------------------|

Guitar 1:
D|-----------------------------------------------------------------------------|
A|-----------------------------------------------------------------------------|
F|-----------------------------------------------------------------------------|
C|--19--19--19--18--18--18--16--16--16--14--14--14--14--14--14--14--14---------|
G|--17--17--17--16--16--16--14--14--14--12--12--12--12--12--12--12--12---------|
C|-----------------------------------------------------------------------------|
“So let's do this,

Guitar 2: Let Ring
D|---------------------------------------------------------------------------|
A|---------------------------------------------------------------------------|
F|---------------------------------------------------------------------------|
C|--0------------------------------------------------------------------------|
G|--0------------------------------------------------------------------------|
C|--0------------------------------------------------------------------------|

Guitar 1:
D|---------------------------------------------------------------------------|
A|---------------------------------------------------------------------------|
F|---------------------------------------------------------------------------|
C|--9--9--9--11-11-11-7------------------------------------------------------|
G|--7--7--7--9--9--9--5------------------------------------------------------|
C|---------------------------------------------------------------------------|
And let's do this right!
Guitar 2:
D|---------------------------------------------------------------------------|
A|---------------------------------------------------------------------------|
F|---------------------------------------------------------------------------|
C|--2--2--2--4--4--4--0------------------------------------------------------|
G|--2--2--2--4--4--4--0------------------------------------------------------|
C|--2--2--2--4--4--4--0------------------------------------------------------|

As far as I can tell, the rest is played by both guitars simultaneously:

D|---------------------------------------------------------------------------|
A|---------------------------------------------------------------------------|
F|---------------------------------------------------------------------------|
C|-------------------------0h2-2p0------------------------0h4-5p4------------|
G|-------------------0-4/5---------4/5--------------0-4/5---------4/5--------|
C|--0---0-2h4-0h2h4---------------------0h2h4-0h2h4--------------------------| x2
Running ‘round in circles…              And stepping on each other…
Throwing fists at the air…              We'll move out of these walls…
But I love every second of this         I play my part…

On the second one, for the last few notes, the tempo slows down (listen for timing). And 
then you play the same verse 2 more times in the slower tempo. The last time you play 
the verse, it's played like this (only the very last note is different):

D|---------------------------------------------------------------------------|
A|---------------------------------------------------------------------------|
F|---------------------------------------------------------------------------|
C|-------------------------0h2-2p0------------------------0h4-5p4------------|
G|-------------------0-4/5---------4/5--------------0-4/5---------5----------|
C|--0---0-2h4-0h2h4---------------------0h2h4-0h2h4--------------------------|
And what has more promise than this? A room full of kids, with all the same dreams!
(Drum Break)

D|---------------------------------------------------------------------------|
A|---------------------------------------------------------------------------|
F|---------------------------------------------------------------------------|
C|--0--------0-------0---------7--5--4---0--------0------0--------5--4--2----|
G|--0-5p4-5--0--4-5--0--5p4-5--7--5--4---0-5p4-4--0-4-5--0-5p4-5--5--4--2----|
C|--0--------0-------0---------7--5--4---0--------0------0--------5--4--2----| x2
Keep your eyes on the goal, breath under control…

D|---------------------------------------------------------------------------|
A|---------------------------------------------------------------------------|
F|---------------------------------------------------------------------------|
C|--9---7---5---7---5---4---5---4---2---0----0--0--0-------------------------|
G|--9---7---5---7---5---4---5---4---2---0----0--0--0--7p0h5p0h4p0h5p0--------|
C|--9---7---5---7---5---4---5---4---2---0----0--0--0-------------------------|
 Don't know that the good guys always win?!


D|---------------------------------|
A|---------------------------------|
F|---------------------------------|
C|--0----0--0--0-------------------|
G|--0----0--0--0--7p0h5p0h4p0h5p0--|
C|--0----0--0--0-------------------|x3

(Drum Break)

There is a second guitar during this part, but I can't quite figure it out.
D|---------------------------------------------------------------------------|
A|---------------------------------------------------------------------------|
F|---------------------------------------------------------------------------|
C|--0------5------7------7-----5------4-----0------5------7------7-----5-----|
G|--0-x14--5-x14--7-x10--5-x4--5-x10--4-x4--0-x14--5-x14--7-x10--5-x4--5-x14-|
C|--0------5------7------------5------4-----0------5------7------------5-----|
And I know it's hard…


The last bar on 5 is slowly slowed down until the final verse:

D|---------------------------------------------------------------------------|
A|---------------------------------------------------------------------------|
F|---------------------------------------------------------------------------|
C|-4---0---5--0-0-0---4---0---5---0--5h7---4---0---5--0-0-0--7--0--4--0--2h4-|
G|-2---0---5--0-0-0---2---0---5---0--5h7---2---0---5--0-0-0--7--0--4--0--2h4-|
C|-----0---5--0-0-0-------0---5---0--5h7-------0---5--0-0-0--7--0--4--0--2h4-|

D|---------------------------------------------------------------------------|
A|---------------------------------------------------------------------------|
F|---------------------------------------------------------------------------|
C|-4---0---5--0-0-0---4---0---5---0--5h7---4---0---5--0-0-0--7--0--4--0--2h4-|
G|-2---0---5--0-0-0---2---0---5---0--5h7---2---0---5--0-0-0--7--0--4--0--2h4-|
C|-----0---5--0-0-0-------0---5---0--5h7-------0---5--0-0-0--7--0--4--0--2h4-|

D|---------------------------------------------------------------------------|
A|---------------------------------------------------------------------------|
F|---------------------------------------------------------------------------|
C|--0-----0-0----------------------------------------------------------------|
G|--0-----0-0----------------------------------------------------------------|
C|--0-----0-0----------------------------------------------------------------|

If you have any questions or comments, email me!

grlushington@yahoo.com

************************************

| /   slide up
| h   hammer-on
| p   pull-off
| +   harmonic
Добавлено: 15.07.2013
Другие материалы по этой песне:
  • Аккорды и текст

Страница создана 15.07.2013
http://primanota.ru/misc-unsigned-bands/worthwhile-good-guys-win-chords.htm
Привет, Гость.
Предлагаем пройти революционный курс по гитаре.
Подарок от PrimaNota.Ru, забирай!