PrimaNota.ru - самый крупный в мире бесплатный архив песенных текстов, аккордов, табулатур и нот


Misc Unsigned Bands - Written In Stone - Failed Containment - таба

Регистрация Запомнить меня
Войти через:  Facebook Google Twitter Vk Yandex Mail.ru

Misc Unsigned Bands - Written In Stone - Failed Containment - таба

Печатать
Просмотров: 58
                             SONG NAME - Band Name
-------------------------------------------------------------------------------
Tabbed by: jake pomerleau
E-mail:

Tuning:DROP G (bears grinding up metal and shitting)

A|---------------------------------------------------------------------------|
E|---------------------------------------------------------------------------|
C|---------------------------------------------------------------------------|
G|---------------------------------------------------------------------------|
D|---------------------------------------------------------------------------|
G|000-0000000000-000-0000000000-000-0000000000-000-0000-000-0-000-0----------|

A|---------------------------------------------------------------------------|
E|---------------------------------------------------------------------------|
C|---------------------------------------------------------------------------|
G|---------------------------------------------------------------------------|
D|---------------------------------------------------------------------------|
G|000-0000000000-000-0000000000-000-0000000000-0--(You cant contain us!)-----|

A|---------------------------------------------------------------------------|
E|---------------------------------------------------------------------------|
C|---------------------------------------------------------------------------|
G|---------------------------------------------------------------------------|
D|---------------------------------------------------------------------------|
G|000-0000000000-100-0000000000-000-0000000000-11111144443/5-----------------|

A|---------------------------------------------------------------------------|
E|---------------------------------------------------------------------------|
C|---------------------------------------------------------------------------|
G|---------------------------------------------------------------------------|
D|---------------------------------------------------------------------------|
G|000-0000000000-100-0000000000-000-0000000000-111111444431------------------|

A|---------------------------------------------------------------------------|
E|---------------------------------------------------------------------------|
C|---------------------------------------------------------------------------|
G|---------------------------------------------------------------------------|
D|---------------------------------------------------------------------------|
G|000-0000000000-100-0000000000-000-0000000000-11111144443/5-----------------|

A|---------------------------------------------------------------------------|
E|---------------------------------------------------------------------------|
C|---------------------------------------------------------------------------|
G|---------------------------------------------4-3-1-------------------------|
D|---------------------------------------------4-3-1-------------------------|
G|000-0000000000-100-0000000000-000-0000000000-4-3-1-------------------------|

A|---------------------------------------------------------------------------|
E|---------------------------------------------------------------------------|
C|---------------------------------------------------------------------------|
G|---------------------------------------------------------------------------|
D|--------------5555333366665555---------------------------------------------|
G|000000-100000------------------000000-100000-000000-0000013----------------|

A|---------------------------------------------------------------------------|
E|---------------------------------------------------------------------------|
C|---------------------------------------------------------------------------|
G|---------------------------------------------------------------------------|
D|------------------------------------------------------------5h6------------|
G|000010000000000033333111008888-000010000000000033333111007h8---------------|

A|---------------------------------------------------------------------------|
E|---------------------------------------------------------------------------|
C|---------------------------------------------------------------------------|
G|------------------------------------------------653431---------------------|
D|------------------------------------------------653431---------------------|
G|000010000000000033333111008888-0000100000000000-653431---------------------|
          (X2 except on last completion with chords, do the ones below)

A|---------------------------------------------------------------------------|
E|---------------------------------------------------------------------------|
C|---------------------------------------------------------------------------|
G|653430---------------------------------------------------------------------|
D|653430-0000----0--0000--00-0-----------------------------------------------|
G|653430-1111----1--1111--11-1----000-00-0-0-0-------------------------------|

A|---------------------------------------------------------------------------|
E|---------------------------------------------------------------------------|
C|---------------------------------------------------------------------------|
G|---------------------------------------------------------------------------|
D|---------------------------------------------------------------------------|
G|000-000----000-000--000-000-000-000----000-000--000-000-000-000----000-000-|

A|---------------------------------------------------------------------------|
E|---------------------------------------------------------------------------|
C|---------------------------------------------------------------------------|
G|---------------------------------------------------------------------------|
D|------------------------43-0-2-0-1/65--------------------------------------|
G|-000-000-000-000----000-43-0-2-0-1/65--000-000-000-000-000-000-000-000-----|

A|---------------------------------------------------------------------------|
E|---------------------------------------------------------------------------|
C|---------------------------------------------------------------------------|
G|---------------------------------------------------------------------------|
D|---------------------------------------------------------------------------|
G|1-000-1-000-1-000-1111-000-000-000-000-000-000-000-000-1-000-1-000-1-000---|

A|---------------------------------------------------------------------------|
E|---------------------------------------------------------------------------|
C|---------------------------------------------------------------------------|
G|---------------------------------------------------------------------------|
D|---------------6565--6565--------6565---------------------6565--6565-------|
G|1111--(1:47)-00----00----0~00000~----0~8888777733334444-00----00----0~0000-|

A|---------------------------------------------------------------------------|
E|---------------------------------------------------------------------------|
C|---------------------------------------------------------------------------|
G|--------------------4~-----------------------------------------------------|
D|--6565--------------4~---6565--6565--------6565----------------------------|
G|0~----0~8888777733334~-00----00----0~00000~----0~8888777733334444----------|

A|-------------------------------------------------------------------|
E|-------------------------------------------------------------------|
C|-------------------------------------------------------------------|
G|--------------------------------------------------1111111111111111-|
D|--6565--6565--------6565--------------------------1111111111111111-|
G|00----00----0~00000~----0~8888777744443333-(2:09)-1111111111111111-|

A|---------------------------------------------------------------------------|
E|---------------------------------------------------------------------------|
C|---------------------------------------------------------------------------|
G|88888888444444441111111111111111888888883~---------------------------------|
D|88888888444444441111111111111111888888883~----(Long Pause)-----------------|
G|88888888444444441111111111111111888888883~---------------------------------|

A|---------------------------------------------------------------------------|
E|---------------------------------------------------------------------------|
C|---------------------------------------------------------------------------|
G|---------------------------------------------------------------------------|
D|---------------------------------------------------------------------------|
G|000000-100000-000000-100000-000000-100000----------------------------------|

Ill do the chugs after that and you can do a cool pinchy where the harmonic is

A|---------------------------------------------------------------------------|
E|---------------------------------------------------------------------------|
C|---------------------------------------------------------------------------|
G|---------------------------------------------------------------------------|
D|---------------------------------------------6~0-5~0-1~-(X4)---------------|
G|000000-100000-000000-10000h888-000000-100000-6~0-5~0-1~--------------------|

A|---------------------------------------------------------------------------|
E|---------------------------------------------------------------------------|
C|---------------------------------------------------------------------------|
G|---------------------------------------------------------------------------|
D|--------------------------------------------3333222222/6666665555-(X2)-----|
G|55555555555588884444444444447777111111111111-------------------------------|

A|---------------------------------------------------------------------------|
E|---------------------------------------------------------------------------|
C|---------------------------------------------------------------------------|
G|---------------------------------------------------------------------------|
D|---------------------------------------------------------------------------|
G|0~----(Long ass fucking nigger pause)--------------------------------------|

Clean Section:

A|-------------------------10-13~12~-----------------------------------------|
E|-----6~5\------------/10~--------------------------------------------------|
C|---7~-----3~2~-----7~------------------------------------------------------|
G|--7---------------7---------------(X4)-------------------------------------|
D|-5---------------5---------------------------------------------------------|
G|0---------------0----------------------------------------------------------|

A|---------------------------------------------------13-12-------------------|
E|----65----------11-10-----------65----------11-10--------(Do this x2-------|
C|---7--5\2-3/10-9-----10--------7--5\2-3/10-9-----10-------clean, and-------|
G|--7--------------------10\8---7---------------------------x2 distorted)----|
D|-5---------------------------5---------------------------------------------|
G|0---------------------------0----------------------------------------------|

A|---------------------------------------------------------------------------|
E|---------------------------------------------------------------------------|
C|---------------------------------------------------------------------------|
G|-------(you know the next riff already, the next tab is the breakdown------|
D|---------------------------------------------------------------------------|
G|0~-------------------------------------------------------------------------|

Breakdown:    <6b> = pinchy on the designated note with a slight bend

A|---------------------------------------------------------------------------|
E|---------------------------------------------------------------------------|
C|---------------------------------------------------------------------------|
G|---------------------------------------------------------------------------|
D|---------------------------------------------------------------------------|
G|00000~00000~00000~00000~0000<6b>-0-<3b>-0-<1b>-00000~00000~00000~00000~----|

A|---------------------------------------------------------------------------|
E|---------------------------------------------------------------------------|
C|---------------------------------------------------------------------------|
G|-----(Do a full fret board slide down and up slowly, to compensate for the-|
D|------------------------------Stutter there)-------------------------------|
G|0000-----------------------------------------------------------------------|

"This will raise the fucking dead!"

A|-----------------------------18181717--------------------------------------|
E|15~14~-----------15~14~--------------15~14~-----------15~14~---------------|
C|------15~14~\10--------15~14~--------------15~14~\10--------15~14~13~------|
G|---------------12-----------------------------------12---------------------|
D|---------------------------------------------------------------------------|
G|---------------------------------------------------------------------------|

A|---------------------------------------------------------------------------|
E|---------------------------------------------------------------------------|
C|---------------------------------------------------------------------------|
G|-----------------------(The rest is peaches and cream)---------------------|
D|---------------------------------------------------------------------------|
G|---------------------------------------------------------------------------|

A|---------------------------------------------------------------------------|
E|---------------------------------------------------------------------------|
C|---------------------------------------------------------------------------|
G|-----------------------(congrats, youve learned the song)------------------|
D|---------------------------------------------------------------------------|
G|---------------------------------------------------------------------------|

A|---------------------------------------------------------------------------|
E|---------------------------------------------------------------------------|
C|---------------------------------------------------------------------------|
G|---------------------------(NIGGER)----------------------------------------|
D|---------------------------------------------------------------------------|
G|---------------------------------------------------------------------------|

A|---------------------------------------------------------------------------|
E|---------------------------------------------------------------------------|
C|---------------------------------------------------------------------------|
G|-----(fORWARD THIS TO CRONAN AND TELL HIM TO PLAY THE ROOT NOTE)-----------|
D|---------------------------------------------------------------------------|
G|---------------------------------------------------------------------------|
Добавлено: 15.07.2013
Другие материалы по этой песне:
  • Аккорды и текст

Страница создана 15.07.2013
http://primanota.ru/misc-unsigned-bands/written-in-stone-failed-containment-chords.htm
Привет, Гость.
Предлагаем пройти революционный курс по гитаре.
Подарок от PrimaNota.Ru, забирай!