PrimaNota.ru - самый крупный в мире бесплатный архив песенных текстов, аккордов, табулатур и нот


Misc Unsigned Bands - Wyldlife - Guardian Angels - таба

Регистрация Запомнить меня
Войти через:  Facebook Google Twitter Vk Yandex Mail.ru

Misc Unsigned Bands - Wyldlife - Guardian Angels - таба

Печатать
Просмотров: 92
-------------------------------------------------------------------------------
                          Guardian Angels - Wyldlife
-------------------------------------------------------------------------------
Tabbed by: Nicolai Kozel
E-mail: nicolaikozel@live.ca
Link To Song: http://wyldlife.bandcamp.com/track/guardian-angels

Tuning:EADGBE 

Intro
Guitar 1   
e|------6--------7--------------| x4 
B|---------------------------9--|
G|--4/6---6--6/8---8--8\6-4--9--|
D|---------------------------9--|
A|---------------------------7--|
E|------------------------------|

Guitar 2 (Come in third time of intro) 
e|-----------------------------------------| x2
B|-----------------------------------------|
G|-----------------------1111111111111111--|
D|--444444444--66666666--2222222222222222--|
A|--444444444--66666666--2222222222222222--|
E|--222222222--44444444--0000000000000000--|

Verse (Bass/Drum First Two Times; Then Guitar Kicks In)   
e|-----------------------------------------| x2
B|-----------------------------------------|
G|-----------------------1111111111111111--|
D|--44444444--666666666--2222222222222222--|
A|--44444444--666666666--2222222222222222--|
E|--22222222--444444444--0000000000000000--|

Interlude
Guitar 1 
e|------6--------7--------------| x2
B|---------------------------9--|
G|--4/6---6--6/8---8--8\6-4--9--|
D|---------------------------9--|
A|---------------------------7--|
E|------------------------------|

Guitar 2
e|-----------------------------------------| x2
B|-----------------------------------------|
G|----------------------11111111111111111--|
D|--44444444--66666666--22222222222222222--|
A|--44444444--66666666--22222222222222222--|
E|--22222222--44444444--00000000000000000--|

Verse 2
Guitar 2 
e|-----------------------------------------| x4
B|-----------------------------------------|
G|----------------------11111111111111111--|
D|--44444444--66666666--22222222222222222--|
A|--44444444--66666666--22222222222222222--|
E|--22222222--44444444--00000000000000000--|

Guitar 1 Fills (At End of Verse Progression) 
e|------------|First |-------------| Second 
B|------------|      |-------------|        
G|------------|      |-------------|       
D|-----4------|      |-------------|        
A|--/6---6-4--|      |------6------|       
E|------------|      |--7/9---9-7--|       

Chorus 1                                     Bridge 
e|------------------------------------------|----------|
B|---------------------------------------x4-|----------|
G|----------------------1111111111111111----|--1~------|
D|--44444444--66666666--2222222222222222 ---|--2~------|
A|--44444444--66666666--2222222222222222----|--2~------|
E|--22222222--44444444--0000000000000000----|--0~------|

e|-----------------------------------------------------|
B|-----------------------------------------------------|
G|--------111111111111111111---------------------------|
D|--6--4--222222222222222222--4--66666666666666666--9--|
A|--6--4--222222222222222222--4--66666666666666666--9--|
E|--4--2--000000000000000000--2--44444444444444444--7--|

e|---------------------------------------------------------------------------------|
B|---------------------------------------------------------------------------------|
G|---------------------------------------------------------------------------------|
D|--66666666666666666--8--999999999999999999-111111111111111111111111111111111111--|
A|--66666666666666666--8--999999999999999999-111111111111111111111111111111111111--|
E|--44444444444444444--6--777777777777777777-9-9-9-9-9-9-9-9-9-9-9-9-9-9-9-9-9-9---|

e|---------------------------------|
B|---------------------------------|
G|------------22222222-------------|
D|--444444444-22222222-4444444~----|
A|--444444444-11111111-4444444~----|
E|--222222222-00000000-2222222~----|

Buildup 
e|--------|
B|--------|
G|--------|
D|--4(X)--|
A|--4(X)--|
E|--2(X)--|

Chorus 2
e|----------------------------------------| x4
B|----------------------------------------|
G|----------------------1111111111111111--|
D|--44444444--66666666--2222222222222222--|
A|--44444444--66666666--2222222222222222--|
E|--22222222--44444444--0000000000000000--|

Solo
Guitar 1
e|-------------------------|-------------------------|--16-~---16-------|
B|--16--16-----16----------|--16--16-----16----------|--19b~---19b-16~--|
G|--18b----18b----18br16~--|--18b----18b----18br16~--|------------------|
D|-------------------------|-------------------------|------------------|
A|-------------------------|-------------------------|------------------|
E|-------------------------|-------------------------|------------------|

e|-------------------------------------------------|
B|--19-16----16--21-19----19--22b(W)--22b(1.5-2W)--|
G|--------18-----------20--------------------------|
D|-------------------------------------------------|
A|-------------------------------------------------|
E|-------------------------------------------------|

e|------------------------------------|<--(This part is close enough; needs fixing) 
B|-----12----12-9-12-7-9-9-7---7------|
G|--16----15-----------------4---6b~--|
D|------------------------------------|
A|------------------------------------|
E|------------------------------------|

Guitar 2
e|-----------------------------------------| x3
B|-----------------------------------------|
G|----------------------11111111111111111--|
D|--44444444--66666666--22222222222222222--|
A|--44444444--66666666--22222222222222222--|
E|--22222222--44444444--00000000000000000--|

Chorus 3
Guitar 1   
e|------6--------7--------------| x2 
B|---------------------------9--|
G|--4/6---6--6/8---8--8\6-4--9--|
D|---------------------------9--|
A|---------------------------7--|
E|------------------------------|

Guitar 2
e|-----------------------------------------| x2
B|-----------------------------------------|
G|----------------------11111111111111111--|
D|--44444444--66666666--22222222222222222--|
A|--44444444--66666666--22222222222222222--|
E|--22222222--44444444--00000000000000000--|

Outro 
Guitar 1
e|------6-----|  
B|------------|
G|--4/6---6~--|
D|------------|
A|------------|
E|------------|

************************************

| /   slide up
| \   slide down
| h   hammer-on
| p   pull-off
| ~   vibrato
| +   harmonic
| x   Mute note
| b   Bend
| pb  Pre-bend
| br  Bend release
| pbr Pre-bend release
| brb Bend release bend

************************************
Добавлено: 03.12.2013
Другие материалы по этой песне:
  • Аккорды и текст

Страница создана 03.12.2013
http://primanota.ru/misc-unsigned-bands/wyldlife-guardian-angels-chords.htm
Привет, Гость.
Предлагаем пройти революционный курс по гитаре.
Подарок от PrimaNota.Ru, забирай!