PrimaNota.ru - самый крупный в мире бесплатный архив песенных текстов, аккордов, табулатур и нот


Misc Unsigned Bands - Wilabaliw - Illuminate - таба

Регистрация Запомнить меня
Войти через:  Facebook Google Twitter Vk Yandex Mail.ru

Misc Unsigned Bands - Wilabaliw - Illuminate - таба

Печатать
Просмотров: 46
----------------------------------------------------------------------------
                             SONG NAME - Band Name
----------------------------------------------------------------------------
Tabbed by:jarimikel(iligan Ct)
E-mail:jari.ramirez@ymail.com  /FB jari ramirez

Tuning:DADGBe

INTRO:

e|-x----|
B|-x----|
G|-7----|  16x
D|-5----|
A|-7----|
D|-x----|

e|-x----|
B|-x----|
G|-4----|    16x
D|-5----|
A|-3----|
D|-x----|


Verse I

better put the fire out
before you fall asleep.......
e|----------------------------------|
B|----------------------------------|
G|---------7-7------7-7-----7-7-----|
D|-----5-5------5-5------55---------|2x
A|-7-7------------------------------|
D|----------------------------------|


or i'll be burning
until you wake up............
e|-------------------------------|
B|-------------------------------|
G|---------4-4-----4-4-----------| 2x
D|-----5-5-----5-5-----5-5-------|
A|-3-3---------------------------|
D|-------------------------------|


come here my darling and give satisfaction........
e|----------------------------------|
B|----------------------------------|
G|----------------------------------|
D|----------------------------------|
A|-8-7-5-0-2------0-2-0------3-5~---|
E|-8-7-5-0-2------0-2-0--3-5--------|

Chorus:

can you feel it, can you feel it?......
e|-x----|
B|-x----|
G|-7----|  
D|-5----|
A|-7----|
D|-x----|

if the time is right you'll know.....
e|-x----|
B|-x----|
G|-4----|    
D|-5----|
A|-3----|
D|-x----|


 in total control
 we move against the flow.........
e|-x-------------------|    
B|-x----7-7-7-7-7------|
G|-4-~--5-5-5-5-5------|
D|-5-~-----------------|
A|-3-~-----------------|
D|-x-------------------|

can you feel it, can you feel it?......
e|-x----|
B|-x----|
G|-7----|  
D|-5----|
A|-7----|
D|-x----|

if the time is right you'll know.....
e|-x----|
B|-x----|
G|-4----|    
D|-5----|
A|-3----|
D|-x----|


 in total control
 we move against the flow.........
e|-x-------------------|    
B|-x----7-7-7-7-7------|
G|-4-~--5-5-5-5-5------|
D|-5-~-----------------|
A|-3-~-----------------|
D|-x-------------------|




e|-x------------------|
B|-x------------------|
G|-4-~----------------|
D|-5-~--------3hp3^~~-|
A|-3-~--3h5p3---------|
D|-x------------------|



Verse II

i'm so sick and tired of hearing myself complain...
e|-----------------------------------------|
B|-----------------------------------------|
G|-----------------------------------------|
D|-----5-----5-----5-----------------------|
A|-5h7---7-5---7-5---7-5-7^~~--7/0-88p7~---|
D|---------------------------------88p7~---|

oh please open the door and let me in........
e|-------------------------------------------------|
B|-------------------------------------------------|
G|-------------------------------------------------|
D|-----5-----5-----5--7br5-------------------------|
A|-5h7---7-5---7-5---------7-7--8-8p7~--7/0--------|
D|------------------------------8-8p7~--7/0--------|




don't try to run, don't try to hide
i'm going to kill you, pretend it was a suicide....
e|-----------------------------------------------|
B|-----------------------------------------------|
G|-----3----3----3-----3-------------------------|
D|-3h5---5-3--5-3--5-3--5-3-3/5~-----------------|
A|----------------------------------8-8p7~--7/0--|
D|----------------------------------8-8p7~--7/0--|

are you ready for the roller coaster ride?
e|----------------------------------------------------|
B|----------------------------------------------------|
G|-----3----3----3-----3-5br3-------------------------|
D|-3h5---5-3--5-3--5-3--------5-5-3~-3/0--------------|
A|---------------------------------------88p7~--7/0---|
D|---------------------------------------88p7~---7/0--|

'm going in, darling i'm breaking in
e|-----------------------------------------|
B|-----------------------------------------|
G|-5^-5-3----------------------------------|
D|--------5^-5-3---------------------------|
A|---------------5^-5-3---------------3-5--|
D|----------------------6-5-3---3-5-6------|


BACK TO CHORUS.....



SOLO:
e|----12~~~~~-----7~~~~----------------------------15~~----17~~~---|
B|---x---------/8-------------11h12p11-----11~~~--x-------x--------|
G|--x------------------------------------14------x-------x---------|
D|-x--------------------------------------------x-------x----------|
A|-----------------------/14~~~------------------------------------|
D|-----------------------------------------------------------------|



(PALM MUTE  IN THIS PART)


the dog is barking again
commited a sin
something's wrong, i don't know
e|-----------------------------------|
B|-----------------------------------|
G|-----------------------------------|
D|-----------------------------------|
A|------55---------------------------|
D|--000----8--8-7-7-8----------------|
Добавлено: 25.06.2013
Другие материалы по этой песне:
  • Аккорды и текст

Страница создана 25.06.2013
http://primanota.ru/misc-unsigned-bands/wilabaliw-illuminate-chords.htm
Привет, Гость.
Предлагаем пройти революционный курс по гитаре.
Подарок от PrimaNota.Ru, забирай!