PrimaNota.ru - самый крупный в мире бесплатный архив песенных текстов, аккордов, табулатур и нот


Misc Unsigned Bands - Возвращение Сатурна - Одни В Темноте - таба

Регистрация Запомнить меня
Войти через:  Facebook Google Twitter Vk Yandex Mail.ru

Misc Unsigned Bands - Возвращение Сатурна - Одни В Темноте - таба

Печатать
Просмотров: 123
Уроки эстрадного вокала в Санкт-Петербурге
-------------------------------------------------------------------------------
                             Одни в темноте -  Возвращение Сатурна
01.2006
-------------------------------------------------------------------------------
Tabbed by: Sverhkote Saturn Music Service


Tuning: Open Dsus4


Guitar #2 (Rhytm Guitar)

Intro:


                 D                         F#5                 B5(H5)
d|------------------------------|--------------------|--------------------|--|
a|---0-----------0------------0-|---0----------0-----|-------0--------0---|--|
G|---------------2-----------2--|-2---2------2---2---|--0---0--0-0---0-0--|--|
D|---0-----0----0---0---0---0---|-- 0---0------0---0-|--4-4------4-4------|--|
A|---0- 0----0------0-0---0-----|-4-------4--4-------|--2--------2--------|--|
D|---0--------------0-----------|-4----------4-------|--------------------|--|

                 G5
d|------------------------------|--------------------------------------------|
a|------------------------------|--------------------------------------------|
G|------------------------------|--------------------------------------------|
D|----0----0-----0----0---------|--------------------------------------------|
A|---- 0--0-0-----0-0--0--------|--------------------------------------------|
D|--5---5----5--5--5----5-------|--------------------------------------------|

                 D                         F#5                B5
  ------------------------------|--------------------  |--------------------|--|
a|---0-----------0------------0-|---0----------0-----|-------0--------0---|----|
G|---------------2-----------2--|-2---2------2---2---|--0---0--0-0---0-0--|----|
D|---0-----0----0---0---0---0---|-- 0---0------0---0-|--4-4------4-4------|----|
A|---0- 0----0------0-0---0-----|-4-------4--4-------|--2--------2--------|----|
D|---0--------------0-----------|-4----------4-------|--------------------|----|

                 G5
d|-----------------------------------------------------------------------------|
a|-----------------------------------------------------------------------------|
G|-----------------------------------------------------------------------------|
D|----0----0----7--7--7--7-----------------------------------------------------|
A|---- 0--0-0---5--5--5--5-----------------------------------------------------|
D|--5---5----5--5--5--5--5-----------------------------------------------------|
e|-----------------------------------------------------------------------------|
B|-----------------------------------------------------------------------------|
G|-----------------------------------------------------------------------------|
D|-----------------------------------------------------------------------------|
A|-----------------------------------------------------------------------------|
E|-----------------------------------------------------------------------------|

Verse:


      D          F#5 (A6/F#)

d|----0-----|----0-----|---------------------------------------------------------|
a|----0-----|----0-----|---------------------------------------------------------|
G|----2-----|----2-----|---------------------------------------------------------|
D|----0-----|----0-----|---------------------------------------------------------|
A|----0-----|----4-----|---------------------------------------------------------|
d|----0-----|----4-----|---------------------------------------------------------|


Chorus:

     B5         Esus2sus4/F#       F#5        G5

d|---x------|---x------|-----------x------|---x---------------------------------------|
a|---x------|--(9)-----|-----------x------|---x---------------------------------------|
G|---x------|---9------|-----------x------|---x---------------------------------------|
D|---11-----|---7------|-----------x------|---x---------------------------------------|
A|---9------|---9------|-----------4------|---5---------------------------------------|
D|---9------|---x------|-----------4------|---5---------------------------------------|


Outro:


d|---0--0--0--0--0-0-0-0--0-0-0-~0---0--------|
a|---0--0--0--0--2-2-2-2p-3-3-3-~3---0--------|
G|---2--2--2--2--2-2-2-2--2-2-2-~2---2----LR--|
D|--(0)--LR--------------------------0--------|
A|--(0)--LR--------------------------0--------|
D|--(0)--LR--------------------------0--------|


************************************

| /   slide up
| \   slide down
| h   hammer-on
| p   pull-off
| ~   vibrato
| +   harmonic
| x   Mute note
| b   Bend
| pb  Pre-bend
| br  Bend release
| pbr Pre-bend release
| brb Bend release bend

************************************
Добавлено: 26.04.2016
Другие материалы по этой песне:
  • Аккорды и текст

Страница создана 26.04.2016
http://primanota.ru/misc-unsigned-bands/vozvrashhenie-saturna-odni-v-temnote-chords.htm
Привет, Гость.
Предлагаем пройти революционный курс по гитаре.
Подарок от PrimaNota.Ru, забирай!