PrimaNota.ru - самый крупный в мире бесплатный архив песенных текстов, аккордов, табулатур и нот


Misc Unsigned Bands - Zombies On Vacation - Frankenstein - таба

Регистрация Запомнить меня
Войти через:  Facebook Google Twitter Vk Yandex Mail.ru

Misc Unsigned Bands - Zombies On Vacation - Frankenstein - таба

Печатать
Просмотров: 43
Frankenstein
by Zombies On Vacation
(It's also a great exercise for finger dexterity for beginners)


Play this riff when not singing
e |-------------------------------------|
B |-------------------------------------|
G |-------------------------------------|
D |-------------------------------------|
A |-----2------3----4----5--------------|
E |---------2-----3-----4-----5---------|

B5   F5   C5   G5   C#5   G#5   
D5   A5


Play this riff when there is singing:

e |-----------------------------------------------------------------|
B |-----------------------------------------------------------------|
G |-----------------------------------------------------------------|
D |-----------------------------------------------------------------|
A |-----5-----5-----------4---4-------------------------------------|
E |---------------------------------------4---4----------5---5------|


------------------------------------------------------------------------------


Start
e |-------------------------------------|
B |-------------------------------------|
G |-------------------------------------|
D |-------------------------------------|
A |-----2------3----4----5--------------|
E |---------2-----3-----4-----5---------|

B5   F5   C5   G5   C#5   G#5   
D5   A5


e |-------------------------------------------------------------------|
B |-------------------------------------------------------------------|
G |-------------------------------------------------------------------|
D |-------------------------------------------------------------------|
A |-----5-----5-----------4---4---------------------------------------|
E |---------------------------------------4---4----------5---5--------|
       There's a man on the loose named Frankenstein
       He's on the run, but             committed no crime
       He just looks different than you        and me
        So he's      ostracized         from           society.

e |-------------------------------------|
B |-------------------------------------|
G |-------------------------------------|
D |-------------------------------------|
A |-----2------3----4----5--------------|
E |---------2-----3-----4-----5---------|

e |-------------------------------------------------------------------|
B |-------------------------------------------------------------------|
G |-------------------------------------------------------------------|
D |-------------------------------------------------------------------|
A |-----5-----5-----------4---4---------------------------------------|
E |---------------------------------------4---4-------5-5-------------|
        Raised from the dirt and conceived on a slab
        Searching for the second chance he never had
        Assembled by a cracker jack limb by limb
        The forecast for his future looked pretty grim.


Play this riff when not singing
e |-------------------------------------|
B |-------------------------------------|
G |-------------------------------------|
D |-------------------------------------|
A |-----2------3----4----5--------------|
E |---------2-----3-----4-----5---------|


e |-------------------------------------------------------------------|
B |-------------------------------------------------------------------|
G |-------------------------------------------------------------------|
D |-------------------------------------------------------------------|
A |-----5-----5-----------4---4---------------------------------------|
E |---------------------------------------4---4-------5-5-------------|

  He was born from a mother and then placed in a hole
  Then they rebuilt him,   someone they could control.
   He still has             feelings, a         heart and      a brain.
  But they only see his colored skin and inflict on him pain.


e |-------------------------------------|
B |-------------------------------------|
G |-------------------------------------|
D |-------------------------------------|
A |-----2------3----4----5--------------|
E |---------2-----3-----4-----5---------|

e |-------------------------------------------------------------------|
B |-------------------------------------------------------------------|
G |-------------------------------------------------------------------|
D |-------------------------------------------------------------------|
A |-----5-----5-----------4---4---------------------------------------|
E |---------------------------------------4---4-------5-5-------------|
 It's hard to communicate when no one wants to hear
Rather than try to understand they live in hate and fear.
Frankenstein is not the beast he's made out to be
The true monster in the tale are the ones who won't let him be.

e |-------------------------------------|
B |-------------------------------------|
G |-------------------------------------|
D |-------------------------------------|
A |-----2------3----4----5--------------|
E |---------2-----3-----4-----5---------|


e |-------------------------------------------------------------------|
B |-------------------------------------------------------------------|
G |-------------------------------------------------------------------|
D |-------------------------------------------------------------------|
A |-----5-----5-----------4---4---------------------------------------|
E |---------------------------------------4---4-------5-5-------------|
        There's a man on the loose named Frankenstein
        He's on the run, but            committed no crime
        He just looks different than you        and me
        So he's      ostracized         from           society.
Добавлено: 26.04.2016
Другие материалы по этой песне:
  • Аккорды и текст

Страница создана 26.04.2016
http://primanota.ru/misc-unsigned-bands/zombies-on-vacation-frankenstein-chords.htm
Привет, Гость.
Предлагаем пройти революционный курс по гитаре.
Подарок от PrimaNota.Ru, забирай!