PrimaNota.ru - самый крупный в мире бесплатный архив песенных текстов, аккордов, табулатур и нот


Misc Unsigned Bands - Brown Sauce - I Wanna Be A Winner - бас-таба

Регистрация Запомнить меня
Войти через:  Facebook Google Twitter Vk Yandex Mail.ru

Misc Unsigned Bands - Brown Sauce - I Wanna Be A Winner - бас-таба

Печатать
Просмотров: 105
I Wanna Be A Winner
Written by B.A Robertson and released by the band Brown Sauce in 1981.
This one hit wonder reached number 15 UK and stopped in the UK charts for
12 weeks. The band line up was Noel Edmunds, Keith Chegwin and Maggie
Philbin. Tab by bass50611. Great little song, as per original bass line
Comments at bass254@btinternet.com  See Video on Youtube

Intro:
       .      .    .           .    .      .      .         (Break)
G|--------------------------------------------------------------|
D|--------------------------------------------------------------|
A|-----5----5-5----5-----------5----5-5----5----5-5----5-5----5-|
E|--------------------------------------------------------------|

G|-----------------|
D|-----------------|
A|-5-5-5-5-5-5-5-5-|
E|-----------------|

                 PLAY CROCHETS THROUHOUT THE SONG

Verse:
G|-------------------------------------------------------------------|
D|-------------------------------------------------------------------|
A|-5-5-5-5-5-5-5-5-----------------------------------0-0-0-0-0-2-3-4-|
E|-----------------5-5-5-5-5-5-5-5---3-3-3-3-3-3-3-3-----------------|

G|---------------------------------------------------------------|
D|---------------------------------------------------------------|
A|-5-5-5-5-5-5-5-5-----------------------------------------------|
E|-----------------5-5-5-5-5-5-5-5---3-3-3-3-3-3-3-3---5-5-5-5-5-|

Chorus:
G|-----------------------------------------------------|
D|-----------------------------------------------------|
A|-----------------------------------------------------|
E|-0-2-3-5-5-5-5-5---0-2-3-5-5-5-5-5---0-2-3-5-5-5-5-5-|

G|-----------------------|
D|-----------------------|
A|-----------------------|
E|-0-2-3-5-5-5-5-5-5-5-5-|

Bridge 1:                                                (Break)
G|----------------------------------------------------------|
D|----------------------------------------------------------|
A|-5-5-5-5-----------5-5-5-5-----------5-5-5-5------------5-|
E|---------3-3---5-5---------3-3---5-5---------3-3---5-5----|

Instrumental Interlude:
     .     .     .    (Break)
G|----------------------------------------------|
D|----------------------------------------------|
A|---5-----5-----5-----5--------5-5-5-5-5-5-5-5-|
E|----------------------------------------------|

Repeat Verse:

Repeat Chorus:

Bridge 2:
G|-----------------------------------------------------------------------|
D|-------------------------------------------------------3-3-3-3-3-3-3-3-|
A|-5-5-5-5-----------5-5-5-5-----------5-5-5-5---------------------------|
E|---------3-3---5-5---------3-3---5-5---------3-3---5-5-----------------|

G|-----------------------------------------------------------------|
D|-5-5-5-5-5-5-5-5---3-3-3-3-3-3-3-3---5-5-5-5-5-5-5-5---7-7-7-7-7-|
A|-----------------------------------------------------------------|
E|-----------------------------------------------------------------|

Repeat Chorus:

Repeat Bridge 1:

Outro:
     .     .     .     END
G|-----------------------|
D|-----------------------|
A|---5-----5-----5-----5-|
E|-----------------------|
Добавлено: 22.08.2015
Другие материалы по этой песне:
  • Аккорды и текст

Страница создана 22.08.2015
http://primanota.ru/misc-unsigned-bands/brown-sauce-i-wanna-be-a-winner-chords.htm
Привет, Гость.
Предлагаем пройти революционный курс по гитаре.
Подарок от PrimaNota.Ru, забирай!