PrimaNota.ru - самый крупный в мире бесплатный архив песенных текстов, аккордов, табулатур и нот


Misc Unsigned Bands - Too Shy - White Feather - бас-таба

Регистрация Запомнить меня
Войти через:  Facebook Google Twitter Vk Yandex Mail.ru

Misc Unsigned Bands - Too Shy - White Feather - бас-таба

Печатать
Просмотров: 112
VERSE:

G |-----------------|-----------------|-----------------|-----------------|
D |-----------------|-----------------|-----------------|-----------------|
A |-5---r-X-5---r-X-|-3---r-X-1---r-X-|-0---r-X-0---r-X-|-0---r-X-0---r-3*|
E |-----------------|-----------------|-----------------|-----------------|
    1 & 2 & 3 & 4 &   1 & 2 & 3 & 4 &   1 & 2 & 3 & 4 &   1 & 2 & 3 & 4 &

G |-----------------|-----------------|-----------------|-----------------|
D |-----------------|-----------------|-----------------|-----------------|
A |-5---r-X-5---r-X-|-3---r-X-1---r-X-|-0---r-X-0---r-X-|-0---r-X-0---r-5*|
E |-----------------|-----------------|-----------------|-----------------|
    1 & 2 & 3 & 4 &   1 & 2 & 3 & 4 &   1 & 2 & 3 & 4 &   1 & 2 & 3 & 4 &

G |-----------------|-----------------|-----------------|-----------------|
D |-3---r-3---3---0-|-3---r-3---3-----|-----------------|-----------------|
A |-------------3---|-------------5-0-|-3---r-3---r---0-|-3---r-3-----0---|
E |-----------------|-----------------|-------------3---|---------------3-|
    1 & 2 & 3 & 4 &   1 & 2 & 3 & 4 &   1 & 2 & 3 & 4 &   1 & 2 & 3 & 4 &

G |-----------------|-----------------|
D |-----------------|-----------------|
A |-1---r-1---------|-1---r-1---------|
E |-------------3-1-|-------------3-X-|
    1 & 2 & 3 & 4 &   1 & 2 & 3 & 4 &

CHORUS: 

G |-----------------|-----------------|-----------------|-----------------|
D |-----------------|-----------------|-----------------|-----------------|
A |-5---r-X-5---3-0-|-5---r-1-r-1-r---|-3---r-X-3---r-X-|-3---r-1-r-1-r---|
E |-----------------|---------------3-|-----------------|---------------3-|
    1 & 2 & 3 & 4 &   1 & 2 & 3 & 4 &   1 & 2 & 3 & 4 &   1 & 2 & 3 & 4 &

G |-----------------|-----------------|
D |-----------------|-----------------|
A |-3---r-X-3---r-X-|-3---r-3---------|
E |-----------------|-----------0-3-5-|
    1 & 2 & 3 & 4 &   1 & 2 & 3 & 4 &

G |-----------------|-----------------|-----------------|-----------------|
D |-----------------|-----------------|-----------------|-----------------|
A |-5---r-X-5-3-r-1-|(1)--r-1-----1-r-|-3---r-3-----0---|-3---r-3-----0-3-|
E |-----------------|---------1-3-----|---------------3-|-----------------|
    1 & 2 & 3 & 4 &   1 & 2 & 3 & 4 &   1 & 2 & 3 & 4 &   1 & 2 & 3 & 4 &

G |-----------------|-----------------|-----------------|-----------------|
D |-----------------|-----------------|-----------------|-----------------|
A |-5---r-X-5-3-r-1-|(1)--r-1-----1---|-3---r-3-----0---|-3---r-3-----0-3*|
E |-----------------|---------1-3---3-|---------------3-|-----------------|
    1 & 2 & 3 & 4 &   1 & 2 & 3 & 4 &   1 & 2 & 3 & 4 &   1 & 2 & 3 & 4 &
Добавлено: 26.03.2015
Другие материалы по этой песне:
  • Аккорды и текст

Страница создана 26.03.2015
http://primanota.ru/misc-unsigned-bands/too-shy-white-feather-chords.htm
Привет, Гость.
Предлагаем пройти революционный курс по гитаре.
Подарок от PrimaNota.Ru, забирай!