PrimaNota.ru - самый крупный в мире бесплатный архив песенных текстов, аккордов, табулатур и нот


Misc Unsigned Bands - Thomann Bass Rock Sample - бас-таба

Регистрация Запомнить меня
Войти через:  Facebook Google Twitter Vk Yandex Mail.ru

Misc Unsigned Bands - Thomann Bass Rock Sample - бас-таба

Печатать
Просмотров: 109
-------------------------------------------------------------------------------
                             Thomann - Rock Bass Sample
-------------------------------------------------------------------------------
Tabbed by: G03tzi

Tuning:Standard

G|------------------------------------------------------|
D|------------------------------------------------------|
A|--------------------5-6-7-----------------------------|
E|--0-0-x--0-3-5-5-x--------0--x--0-3-5-5--7-5-3--------|

G|------------------------------------------------------|
D|------------------------------------------------------|
A|--------------------5-6-7-----------------------------|
E|--0-0-x--0-3-5-5-x--------0--x--0-3-5-5--7-5-3--------|

G|---------------------------------|
D|--------------------------7--9-\-|
A|----------------------7-9--------|
E|--2-2---2-5-5---5-7-7------------|

G|------------------------------------------|
D|------------------------------------------|
A|--------------------5-6-7-----------------|
E|--0-0-x--0-3-5-5-x--------0--7-5-3-0------|

| /  slide up
| \  slide down
| h  hammer-on
| p  pull-off
| ~  vibrato
| +  harmonic
| x  Mute note
===============================================================================
Добавлено: 26.03.2015
Другие материалы по этой песне:
  • Аккорды и текст

Страница создана 26.03.2015
http://primanota.ru/misc-unsigned-bands/thomann-bass-rock-sample-chords.htm
Привет, Гость.
Предлагаем пройти революционный курс по гитаре.
Подарок от PrimaNota.Ru, забирай!