PrimaNota.ru - самый крупный в мире бесплатный архив песенных текстов, аккордов, табулатур и нот


Misc Unsigned Bands - Thomann - Funk Slap Bass-sample - бас-таба

Регистрация Запомнить меня
Войти через:  Facebook Google Twitter Vk Yandex Mail.ru

Misc Unsigned Bands - Thomann - Funk Slap Bass-sample - бас-таба

Печатать
Просмотров: 151
-------------------------------------------------------------------------------
                             Thomann - Funk/Slap Samples
-------------------------------------------------------------------------------
Tabbed by: G03tzi 

Tuning:EADG

Sample 1
G|----------0-------------------0------|
D|-------------0h2----------------0h2--|
A|------4-5-----------------4-5--------|
E|-0-x---------------x-0-x-------------|

G|----------0----------------------------|
D|-------------0h2-----------------2-0---|
A|------4-5--------------------0-0-------|
E|-0-x---------------0h2-2-3-3---------3-|

G|----x-----0-------------------0------|
D|-------------0h2----------------0h2--|
A|---x--4-5-----------------4-5--------|
E|-0-x---------------x-0-x-------------|

G|----------0------------------------------|
D|-------------0h2-----------------2-0-----|
A|------4-5--------------------0-0---------|
E|-0-x---------------0h2-2-3-3---------3-0-|




Sample 2
G|----------------0-0------------0-0--|
D|-----------0h2-------------0h2------|
A|------4-5--------------4-5----------|
E|-0-x---------------0-x--------------|

G|---------------0-------------------|
D|----------0-2h---------------2-0---|
A|------4-5----------------0-0-------|
E|-0-x-------------2-2-3-3---------3-|

G|----x-----------0-0------------0-0--|
D|-----------0h2-------------0h2------|
A|---x--4-5--------------4-5----------|
E|-0-x---------------0-x--------------|

G|---------------0--------------------|
D|----------0h2----------------2-0----|
A|------4-5----------------0-0--------|
E|-0-x-------------2-2-3-3---------3-0|



| /  slide up
| \  slide down
| h  hammer on
| x  Mute note
===============================================================================
Добавлено: 26.03.2015
Другие материалы по этой песне:
  • Аккорды и текст

Страница создана 26.03.2015
http://primanota.ru/misc-unsigned-bands/thomann-funk-slap-bass-sample-chords.htm
Привет, Гость.
Предлагаем пройти революционный курс по гитаре.
Подарок от PrimaNota.Ru, забирай!