PrimaNota.ru - самый крупный в мире бесплатный архив песенных текстов, аккордов, табулатур и нот


Misc Unsigned Bands - Thomann - Acoustic Bass Groove Sample - бас-таба

Регистрация Запомнить меня
Войти через:  Facebook Google Twitter Vk Yandex Mail.ru

Misc Unsigned Bands - Thomann - Acoustic Bass Groove Sample - бас-таба

Печатать
Просмотров: 131
-------------------------------------------------------------------------------
                             Thomann - Acoustic Bass Groove Sample
-------------------------------------------------------------------------------
Tabbed by: G03tzi

Tuning:EADG

G|----------0----------------------|
D|----2--0x---00h2----2--0---------|
A|-----4---------------4-----------|
E|-0-x-------------0-------0-3-3b--|

G|----------0-----------------------|
D|----2--0x---00h2-------------2-0--|
A|-----4-------------------0-0------|
E|-0-x-------------2-2-3-3---------3|

G|----------0----------------------|
D|----2--0x---00h2----2--0---------|
A|-----4---------------4-----------|
E|-0-x-------------0-------0-3-3b--|

G|----------0-------------------------|
D|----2--0x---00h2-------------2-0----|
A|-----4-------------------0-0--------|
E|-0-x-------------2-2-3-3---------3-0|


| h  hammer-on
| p  pull-off
| ~  vibrato
| b  bend
| x  Mute note
===============================================================================
Добавлено: 26.03.2015
Другие материалы по этой песне:
  • Аккорды и текст

Страница создана 26.03.2015
http://primanota.ru/misc-unsigned-bands/thomann-acoustic-bass-groove-sample-chords.htm
Привет, Гость.
Предлагаем пройти революционный курс по гитаре.
Подарок от PrimaNota.Ru, забирай!