PrimaNota.ru - самый крупный в мире бесплатный архив песенных текстов, аккордов, табулатур и нот


Misc Unsigned Bands - The Thick Dimension - Death On Credit - бас-таба, видео

Регистрация Запомнить меня
Войти через:  Facebook Google Twitter Vk Yandex Mail.ru

Misc Unsigned Bands - The Thick Dimension - Death On Credit - бас-таба, видео

Печатать
Просмотров: 144
Уроки эстрадного вокала в Санкт-Петербурге
-------------------------------------------------------------------------------
                             DEATH ON CREDIT - The Thick Dimension
-------------------------------------------------------------------------------


Tuning: Half-Step Down

  INTRO: (X4)
G|---------------------------------------------------------------------------------|
D|---------------------------------------------------------------------------------|
A|----------------------------------------------------------------3----------------|
E|--5---5---5---5---5---0---3---5---6---5---5---5---5---0---3---5---5---5---5---5--|

G|---------------------------------------|
D|---------------------------------------|
A|--------------6---6---6---6---5---3----| X4
E|--0---3---5----------------------------|


  VERSE 1:
G|-----------------------------------------------------------------------------------------|
D|-----------------------------------------------------------------------------------------|
A|-----------------------------------------------------------------------------------------| X2
E|--5~-----X----X-------5~-----X----X-------5~-----X----X-------1~-----1----1----1----1----|

G|--------------------------------------------------------------------------------------------|
D|--------------------------------------------------------------------------------------------|
A|--------------------------------------------------------------------------------------------| X2
E|--5~----5--5----5-------4~----4--4----4-------3~----3--3----3-------1~-----1---0---3---4~---|


  PRE-CHORUS:
G|------------------------------------------------------------------------------------------|
D|------------------------------------------------------------------------------------------|
A|-----------------------------------3~----------------------------------------------5/7~---|
E|--5~----5--5--3~-------5~----5--5-------5~----5--5--3~------5---3---5---6---5---3---------|

G|----------------------7---9~------------------------------8~-----------------------7---9~---|
D|----------5---7---9------------------5--7--5--7--8--7--8---------------5---7---9------------|
A|--5---7------------------------5--7----------------------------5---7------------------------|
E|--------------------------------------------------------------------------------------------|
 
G|--------------------------------|
D|--/8~----7~----5~-----5---------|
A|-------------------------7--5~--|
E|--------------------------------|

  CHORUS:
G|-----------------------------------------------------------------------|
D|-------------------------------------------------------5~-------5~-----|
A|--7-----7---5---7-----7---5~-----5---7-----7---5-----5--------5--------| X2
E|-----------------------------------------------------------------------|

G|--------------------------------------------------------------------|
D|--9-----9---7---9-----9---7~-----7---9-----9---7-------5~-----5~----|
A|--7-----7---5---7-----7---5~-----5---7-----7---5-----5------5-------|
E|--------------------------------------------------------------------|

G|---------------------------------------------------------------------------------|
D|--9-----9---7---9-----9---7~-----7---9-----9---7-------5~-----5~-----5~-----5~---|
A|--7-----7---5---7-----7---5~-----5---7-----7---5-----5------5------5------5------|
E|---------------------------------------------------------------------------------|
  
  
  POST CHORUS: (no vocals)
G|-----------------------------------------------------------------------------------------|
D|-----------------------------------------------------------------------------------------|
A|-----------------------------------------------------------------------------------------|
E|--5~-----X----X-------5~-----X----X-------5~-----X----X-------1~-----1----1----1----1----|


  VERSE 2: (X2)
G|-----------------------------------------------------------------------------------------|
D|-----------------------------------------------------------------------------------------|
A|-----------------------------------------------------------------------------------------| X2
E|--5~-----X----X-------5~-----X----X-------5~-----X----X-------1~-----1----1----1----1----|

G|--------------------------------------------------------------------------------------------|
D|--------------------------------------------------------------------------------------------|
A|--------------------------------------------------------------------------------------------| X2
E|--5~----5--5----5-------4~----4--4----4-------3~----3--3----3-------1~-----1---0---3---4~---|



  CHORUS 2: (X2)
G|-----------------------------------------------------------------------|
D|-------------------------------------------------------5~-------5~-----|
A|--7-----7---5---7-----7---5~-----5---7-----7---5-----5--------5--------| X2
E|-----------------------------------------------------------------------|

G|--------------------------------------------------------------------|
D|--9-----9---7---9-----9---7~-----7---9-----9---7-------5~-----5~----|
A|--7-----7---5---7-----7---5~-----5---7-----7---5-----5------5-------|
E|--------------------------------------------------------------------|

G|---------------------------------------------------------------------------------|
D|--9-----9---7---9-----9---7~-----7---9-----9---7-------5~-----5~-----5~-----5~---|
A|--7-----7---5---7-----7---5~-----5---7-----7---5-----5------5------5------5------|
E|---------------------------------------------------------------------------------|

  BRIDGE:
G|--------------------------------------------------------------------------------------------------| ->
D|-------------5h7p5----------------5h7p5-----------------5h7p5------9-----7\-----------------------| ->
A|-7~-----7-------------7~-----7-------------7~-----7------------------------------0~----0--3h0--0--| ->
E|--------------------------------------------------------------------------------------------------| ->

G|---------------------------------------------------------|
D|---------------------------------------------------------|
A|--0~----0--3h0--0--------0~----0--3h0--0-----------------| X2
E|------------------------------------------------4----5---|


G|---------------------------------------------------------------------------------------------| ->
D|---------------------------------------------------------------------------------------------| ->
A|--/7-----X---X--------/7-----X---X--------/7-----X---X--------3---2--------0~----0--3h0--0---| ->
E|---------------------------------------------------------------------------------------------| ->

G|---------------------------------------------------------|
D|---------------------------------------------------------|
A|--0~----0--3h0--0--------0~----0--3h0--0-----------------| X2
E|------------------------------------------------4----5---|


G|---------------------------------------------------------------------------------------------| ->
D|---------------------------------------------------------------------------------------------| ->
A|--2~----2--2--2--2------2~----2--2--2--2------2~----2--2--2--2--------------0----0--3h0--0---| ->
E|------------------------------------------------------------------3---1----------------------| ->

G|---------------------------------------------------------|    |-------------------|
D|---------------------------------------------------------| X3 |-------------------|
A|--0~----0--3h0--0--------0~----0--3h0--0-----------------|THEN|--2~~--------------|
E|------------------------------------------------4----5---| -> |----------3~---1~--|


  OUTRO(CHORUS RIFF)
G|-----------------------------------------------------------------------|
D|-------------------------------------------------------5~-------5~-----|
A|--7-----7---5---7-----7---5~-----5---7-----7---5-----5--------5--------| X2
E|-----------------------------------------------------------------------|

G|--------------------------------------------------------------------|
D|--9-----9---7---9-----9---7~-----7---9-----9---7-------5~-----5~----|
A|--7-----7---5---7-----7---5~-----5---7-----7---5-----5------5-------|
E|--------------------------------------------------------------------|

G|-------------------------------------------------------------------------------| 
D|--9-----9---7---9-----9---7~-----7---9-----9---7-------5~-----5~-----5~-----5--| Abrupt Finish
A|--7-----7---5---7-----7---5~-----5---7-----7---5-----5------5------5------5----| After Last Note.
E|-------------------------------------------------------------------------------| 


Key:

| /  slide up
| \  slide down
| h  hammer-on
| p  pull-off
| ~  vibrato
| +  harmonic
| x  Mute note
===============================================================================
Добавлено: 29.03.2015
Другие материалы по этой песне:
  • Аккорды и текст

Страница создана 29.03.2015
http://primanota.ru/misc-unsigned-bands/thick-dimension-death-on-credit-chords.htm
Привет, Гость.
Предлагаем пройти революционный курс по гитаре.
Подарок от PrimaNota.Ru, забирай!