PrimaNota.ru - самый крупный в мире бесплатный архив песенных текстов, аккордов, табулатур и нот


Misc Unsigned Bands - Runristarn - Rapture - таба

Регистрация Запомнить меня
Войти через:  Facebook Google Twitter Vk Yandex Mail.ru

Misc Unsigned Bands - Runristarn - Rapture - таба

Печатать
Просмотров: 64
Here is the full tab of my song Rapture. Enjoy!

Tuning:DADGBE

PM = Palm mute
X\\ = Pick slide
h = Hammer on
p = Pull off
b = Bend
\ = Slide down
/ = Slide up
~ = Vibrato


INTRO (Fades in)


|---------------------|--------------------------|---------------------|-----------------------|
|---------------------|--------------------------|---------------------|-----------------------|
|---------------------|--------------------------|---------------------|-----------------------|
|----7--3-----7--3----|--5--2-----5--2-----3--2--|----7--3-----7--3----|5--2-----2-----2--5--7-|
|5---------5--------5-|--------3--------4--------|5---------5--------5-|------3-----4----------|
|---------------------|--------------------------|---------------------|-----------------------|

|---------------------|--------------------------|---------------------|
|---------------------|--------------------------|---------------------|
|---------------------|--------------------------|-------------------7-|
|----7--3-----7--3----|--5--2-----5--2-----3--2--|----7--3-----3--7----|
|5---------5--------5-|--------3--------4--------|5---------5----------|
|---------------------|--------------------------|---------------------|
 
Harmonizing lead
High part                         Low part
|-------------|-----------------| |-------------|-----------------|
|-------------|-----------------| |-------------|-----------------|
|9-----6------|7~---------------| |12-----9-----|10~--------------|
|-------------|-----------------| |-------------|-----------------|
|-------------|-----------------| |-------------|-----------------|
|-------------|-----------------| |-------------|-----------------|

Rythm guitar                              (pick slide)
|-------------|--------------|-----|-----|--------------------|
|-------------|--------------|-----|-----|--------------------|
|-------------|--------------|-----|-----|--------------------|
|--5----2-----|--------------|-----|-----|--------------------|
|--3----0-----|--0-----------|-----|-----|-----X\\\\\\\\\\\\\\|
|-------------|--0-----------|-----|-----|-----X\\\\\\\\\\\\\\|


VERSE

     PM------------------------|     PM------------------------|
|-------------------------------|-------------------------------|
|-------------------------------|-------------------------------|
|-------------------------------|-------------------------------|
|-------------------------------|-------------------------------|
|0--0-0-0-0-0-0-0-0-0-0-0-0-0-0-|5--5-5-5-5-5-5-5-5-5-5-5-5-5-0-|
|0--0-0-0-0-0-0-0-0-0-0-0-0-0-0-|5--5-5-5-5-5-5-5-5-5-5-5-5-5-0-|

     PM------------------------|     PM--| -|     PM----|
|-------------------------------|------------------------------|
|-------------------------------|------------------------------|
|-------------------------------|------------------------------|
|-------------------------------|-------------2--2-2-2-2-2-2-2-|
|3--3-3-3-3-3-3-3-3-3-3-3-3-3-3-|3--3-3-3-3-3-0--0-0-0-0-0-0-0-|
|2--2-2-2-2-2-2-2-2-2-2-2-2-2-2-|3--3-3-3-3-3------------------|

     PM------------------------|     PM------------------------|
|-------------------------------|-------------------------------|
|-------------------------------|-------------------------------|
|-------------------------------|-------------------------------|
|-------------------------------|-------------------------------|
|0--0-0-0-0-0-0-0-0-0-0-0-0-0-0-|5--5-5-5-5-5-5-5-5-5-5-5-5-5-0-|
|0--0-0-0-0-0-0-0-0-0-0-0-0-0-0-|5--5-5-5-5-5-5-5-5-5-5-5-5-5-0-|

     PM------------------------|     PM--| -|     PM----|
|-------------------------------|------------------------------|
|-------------------------------|------------------------------|
|-------------------------------|------------------------------|
|-------------------------------|-------------2--2-2-2-2-2-2-2-|
|3--3-3-3-3-3-3-3-3-3-3-3-3-3-3-|3--3-3-3-3-3-0--0-0-0-0-0-0-0-|
|2--2-2-2-2-2-2-2-2-2-2-2-2-2-2-|3--3-3-3-3-3------------------|

Harmonizing Rythm
Low part                         High part
|------------------------------| |------------------------------------|
|------------------------------| |------------------------------------|
|5-5-5-5-5-5--6--6-6-6-6-6-6-6-| |10-10-10-10-10-12--9--9-9-9-9-9-9-9-|
|------------------------------| |------------------------------------|
|3-3-3-3-3-3--4--4-4-4-4-4-4-4-| |8--8--8--8--8--10--7--7-7-7-7-7-7-7-|
|------------------------------| |------------------------------------|


BRIDGE


Lead
|-----------------|---------------------|------------------------|------------------------|
|-----------------|---------------------|11----------------11----|13-------------------14-|
|7---7-9-10-9-7---|---------9-12-9----9-|---10----------10----10-|---12-------------12----|
|--7------------7-|10----10--------11---|------12----12----------|------14-------14-------|
|-----------------|---10----------------|---------13-------------|---------15-16----------|
|-----------------|---------------------|------------------------|------------------------|

|-----------------------|------------9---------|10----------------10---|
|15----15-17-18-17-15---|13------------10---10-|---11----------11----11|
|---14----------------14|---12----12------9----|------10----10---------|
|-----------------------|------14--------------|---------12------------|
|-----------------------|----------------------|-----------------------|
|-----------------------|----------------------|-----------------------|
Low part                                High part
|12----------12----------|------------| |------------15-12----12-|13~---------|
|---13----13----14----14-|15~---------| |------------------14----|------------|
|------12----------14----|------------| |------------------------|------------|
|------------------------|------------| |------------------------|------------|
|------------------------|------------| |------------------------|------------|
|------------------------|------------| |------------------------|------------|

Rythm
|--------------|--------------|--------------|--------------|
|--------------|--------------|--------------|--------------|
|--------------|--------------|--------------|--------------|
|7--7--7-7-7-7-|5--5-5-2--2-2-|3--3--3-3-3-3-|5--5-5-7--7-7-|
|5--5--5-5-5-5-|3--3-3-0--0-0-|1--1--1-1-1-1-|3--3-3-4--4-4-|
|--------------|--------------|--------------|--------------|

|--------------|--------------|--------------|--------------|
|--------------|--------------|--------------|--------------|
|--------------|--------------|--------------|--------------|
|7--7--7-7-7-7-|5--5-5-2--2-2-|3--3--3-3-3-3-|5--5-5-7------|
|5--5--5-5-5-5-|3--3-3-0--0-0-|1--1--1-1-1-1-|3--3-3-4------|
|--------------|--------------|--------------|--------------|


CHORUS


|---------------------|-----------------------|---------------------|-----------------------|
|---------------------|-----------------------|---------------------|-----------------------|
|---------------------|-----------------------|---------------------|-----------------------|
|----7--3-----7--3----|5--2-----5--2-----3--2-|----7--3-----7--3----|5--2-----2-----2--5--7-|
|5---------5--------5-|------3--------4-------|5---------5--------5-|------3-----4----------|
|---------------------|-----------------------|---------------------|-----------------------|

|---------------------|-----------------------|---------------------|-----------------------|
|---------------------|-----------------------|---------------------|-----------------------|
|---------------------|-----------------------|---------------------|-----------------------|
|----7--3-----7--3----|5--2-----5--2-----3--2-|----8--------8-------|---0--3--5-----2--5--7-|
|5---------5--------5-|------3--------4-------|5------8--5-----8--5-|2-----------3----------|
|---------------------|-----------------------|---------------------|-----------------------|

|---------------------|-----------------------|---------------------|-----------------------|
|---------------------|-----------------------|---------------------|-----------------------|
|---------------------|-----------------------|---------------------|-----------------------|
|----7--3-----7--3----|5--2-----5--2-----3--2-|----7--3-----7--3----|5--2-----2-----2--5--7-|
|5---------5--------5-|------3--------4-------|5---------5--------5-|------3-----4----------|
|---------------------|-----------------------|---------------------|-----------------------|

|---------------------|-----------------------|---------------------|-----------------------|
|---------------------|-----------------------|---------------------|-----------------------|
|---------------------|-----------------------|---------------------|-----------------------|
|----7--3-----7--3----|5--2-----5--2-----3--2-|----8--------8-------|------2--5--2----------|
|5---------5--------5-|------3--------4-------|5------8--5-----8--5-|0--4-----------4--0--4-|
|---------------------|-----------------------|---------------------|-----------------------|

Ending Harmonies
Low part                          High part
|12----------------------|------| |15-12----------------12-|13----|
|---14----------------14-|15----| |------14----------14----|------|
|------12----------12----|------| |---------12----12-------|------|
|---------14-11-14-------|------| |------------14----------|------|
|------------------------|------| |------------------------|------|
|------------------------|------| |------------------------|------|


VERSE (Exactly the same as the first verse)


BRIDGE (Exactly the same as the first bridge)



BREAKDOWN
   PM-----|      ---|    ---|   ---|                 -----|       ---|    
|-----------------------|------------------------|-----------------------|
|-----------------------|------------------------|-----------------------|
|-----------------------|------------------------|-----------------------|
|-----------------------|------------------------|-----------------------|
|0--0-0-0-0------0-0-0--|0-0-0--0-0--------------|0--0-0-0-0------0-0-0--|
|0--0-0-0-0-/12--0-0-0--|0-0-0--0-0-/6---5--3--5-|0--0-0-0-0-/12--0-0-0--|

Harmonizing Rythm (played simultaneously)
Rythm                     Low part                  High part
|-----------------------| |-----------------------| |-----------------------|
|-----------------------| |-----------------------| |-----------------------|
|-----------------------| |7--7--7--7--6--6--6--6-| |10-10-10-10-9--9--9--9-|
|3--3--3--3--2--2--2--2-| |-----------------------| |-----------------------|
|1--1--1--1--0--0--0--0-| |5--5--5--5--4--4--4--4-| |8--8--8--8--7--7--7--7-|
|-----------------------| |-----------------------| |-----------------------|

   PM-----|      ---|    ---|   ---|                 -----|       ---|   PM--|   ---|       -----| 
|-----------------------|------------------------|-----------------------|------------------------|
|-----------------------|------------------------|-----------------------|------------------------|
|-----------------------|------------------------|-----------------------|------------------------|
|-----------------------|------------------------|-----------------------|------------------------|
|0--0-0-0-0------0-0-0--|0-0-0--0-0--------------|0--0-0-0-0------0-0-0--|0-0-0--0-0-6---5--3--2--|
|0--0-0-0-0-/12--0-0-0--|0-0-0--0-0-/6---5--3--5-|0--0-0-0-0-/12--0-0-0--|0-0-0--0-0-6---5--3--2--|


PRE-SOLO


Lead
|------------------------|---------------------|------------------------|
|------------------------|---------------------|------------------------|
|---10-14-10----14-10----|12-9----12-9----10-9-|---10-14-10----14-10----|
|12----------12-------12-|-----10------11------|12----------12-------12-|
|------------------------|---------------------|------------------------|
|------------------------|---------------------|------------------------|

Harmonizing Lead
Low part
|---------------------|------------------------|----------------------|
|---------------------|------------------------|-------------------10-|
|12-9----9----9-12-14-|---10-14-10----14-10----|12-9----12-9----12----|
|-----10---11---------|12----------12-------12-|-----10------11-------|
|---------------------|------------------------|----------------------|
|---------------------|------------------------|----------------------|

|------------------------|------------------------|-----------|
|11----------12----------|13----------14----------|15~--------|
|---10----10----10----10-|---12----12----12----12-|-----------|
|------12----------12----|------14----------14----|-----------|
|------------------------|------------------------|-----------|
|------------------------|------------------------|-----------|

High part
|------------------9-|------10-------10-------|8-----8--------9-|
|---------------10---|---10----10-------10----|--8-----8---10---|
|----------9-12------|10----------10-------10-|----9-----9------|
|--------------------|------------------------|-----------------|
|--------------------|------------------------|-----------------|
|--------------------|------------------------|-----------------|

|10----------10----------|12----------12----------|13~--------|
|---11----11----12----12-|---13----13----14----14-|-----------|
|------10----------10----|------12----------12----|-----------|
|------------------------|------------------------|-----------|
|------------------------|------------------------|-----------|
|------------------------|------------------------|-----------|

Rythm

  PM-------------|                  PM-------------|
|----------------|----------------|----------------|----------------|
|----------------|----------------|----------------|----------------|
|----------------|----------------|----------------|----------------|
|----------------|5-5-5-5-2-2-2-2-|----------------|5-5-5-5-7-7-7-7-|
|0-0-0-0-0-0-0-0-|3-3-3-3-0-0-0-0-|0-0-0-0-0-0-0-0-|3-3-3-3-4-4-4-4-|
|0-0-0-0-0-0-0-0-|----------------|0-0-0-0-0-0-0-0-|----------------|

  PM-------------|                  
|----------------|----------------|----------------|----------------|
|----------------|----------------|----------------|----------------|
|----------------|----------------|----------------|----------------|
|----------------|5-5-5-5-2-2-2-2-|3-3-3-3-5-5-5-5-|5-5-5-5-7-7-7-7-|
|0-0-0-0-0-0-0-0-|3-3-3-3-0-0-0-0-|1-1-1-1-2-2-2-2-|3-3-3-3-4-4-4-4-|
|0-0-0-0-0-0-0-0-|----------------|----------------|----------------|



MAIN SOLO


Lead

Slow Bend       
|10----------------------------|-----------------------------|
|13b15--------13b1513p12p11p10-|-----------------------------|
|------------------------------|13-12-10----10-12------------|
|------------------------------|---------12-------12~--------|
|------------------------------|-----------------------------|
|------------------------------|-----------------------------|

PM---------|           PM---|                
|--------------------------------------|----------------------------------|
|--------------------------------5-6-8-|11-10-9-10-12-10-9-10-13~---------|
|------------5-7-5---5-------5-7-------|----------------------------------|
|------5--7--------7---7-6-7-----------|----------------------------------|
|5--8----------------------------------|----------------------------------|
|--------------------------------------|----------------------------------|

|10---------13----------16-----|--------15---------------13-|
|13b15------16b18-------19b21--|--------18b20---------15----|
|------------------------------|----------------------------|
|------------------------------|----------------------------|
|------------------------------|----------------------------|
|------------------------------|----------------------------|

|17-13--------------------------------|------------------------------|
|------15-------------14-15~----------|17--18--17--15----------------|
|---------14----14-15--------------14-|----------------14~-----------|
|------------15-----------------------|------------------------------|
|-------------------------------------|------------------------------|
|-------------------------------------|------------------------------|

Harmony Tremolo Part

High Part                                    Low Part       
Tremolo Picking----------------|             Tremolo Picking-------------|
|------------------------------------------| |-------------------------------------|
|18--14--17--13--15--10--15--14--17--18~---| |15--10--13--8--11--6--10--5--9--10~--|
|------------------------------------------| |-------------------------------------|
|------------------------------------------| |-------------------------------------|
|------------------------------------------| |-------------------------------------|
|------------------------------------------| |-------------------------------------|

|--------------------------------------------|--------------------------------------------|
|--------------------------------------------|--------------------------------------------|
|------9-10-12-10-9----9----------9-10-12-13-|14-13-12-10-12-13-14-13-12-10-12-13-12b14---|
|---10--------------12---12-11-12------------|--------------------------------------------|
|12------------------------------------------|--------------------------------------------|
|--------------------------------------------|--------------------------------------------|

|-------------------------15------15--16~----|--15b17-15-13-------------|
|15~----15-17-18--17--18------18-------------|-------------15--------13-|
|--------------------------------------------|---------------14---------|
|--------------------------------------------|--------------------------|
|--------------------------------------------|--------------------------|
|--------------------------------------------|--------------------------|

|-12--15--12-----------------|-------------------|
|-------------15--14~--------|15~----------------|
|----------------------------|-------------------|
|----------------------------|-------------------|
|----------------------------|-------------------|
|----------------------------|-------------------|

ENDING HARMONIES (last four bars of main solo)

High Part
|-------10-12-13-12-10----10----------|------------9-12-9--------------9-|
|11~-------------------13----13-11-13-|10-------10--------10--------10---|
|-------------------------------------|-------9--------------9----9------|
|-------------------------------------|----11------------------11--------|
|-------------------------------------|----------------------------------|
|-------------------------------------|----------------------------------|

|-------10-12-13-12-10----10----------|---------------------------|
|11~-------------------13----13-11-13-|10--11-10------------------|
|-------------------------------------|----------12-10-9~---------|
|-------------------------------------|---------------------------|
|-------------------------------------|---------------------------|
|-------------------------------------|---------------------------|


Low Part
|-------------------------------------|-------------12-15-12--------------12-|
|-------11-13-15-13-11----11----------|----------14----------14---------14---|
|10~-------------------14----14-12-14-|-------12----------------12----12-----|
|-------------------------------------|14--14----------------------14--------|
|-------------------------------------|--------------------------------------|
|-------------------------------------|--------------------------------------|


|-------------------------------------|---------------------------|
|-------11-13-15-13-11----11----------|---------------------------|
|----------------------14----14-12-14-|-----12--------------------|
|15~----------------------------------|14------15-14-12-11~-------|
|-------------------------------------|---------------------------|
|-------------------------------------|---------------------------|

Solo Rythm

  PM-------|   -|   --------|   -|   --------|   -|   --------|   -|
|----------------|----------------|----------------|----------------|
|----------------|----------------|----------------|----------------|
|----------------|----------------|----------------|----------------|
|----------------|----------------|----------------|----------------|
|0-0-0-0-0-0-0-0-|0-0-0-0-0-0-0-0-|0-0-0-0-0-0-0-0-|0-0-0-0-0-0-0-0-|
|0-0-0-0-0-0-0-0-|0-0-0-0-0-0-0-0-|0-0-0-0-0-0-0-0-|0-0-0-0-0-0-0-0-|

  PM-------|   -|   --------|   -|   --------|   -| 
|----------------|----------------|----------------|----------------|
|----------------|----------------|----------------|----------------|
|----------------|----------------|----------------|----------------|
|----------------|----------------|----------------|3-3-3-3-2-2-2-2-|
|0-0-0-0-0-0-0-0-|0-0-0-0-0-0-0-0-|0-0-0-0-0-0-0-0-|1-1-1-1-0-0-0-0-|
|0-0-0-0-0-0-0-0-|0-0-0-0-0-0-0-0-|0-0-0-0-0-0-0-0-|----------------|

  PM-------|   -|   --------|   -|   --------|   -|   --------|   -|
|----------------|----------------|----------------|----------------|
|----------------|----------------|----------------|----------------|
|----------------|----------------|----------------|----------------|
|----------------|----------------|----------------|----------------|
|0-0-0-0-0-0-0-0-|0-0-0-0-0-0-0-0-|0-0-0-0-0-0-0-0-|0-0-0-0-0-0-0-0-|
|0-0-0-0-0-0-0-0-|0-0-0-0-0-0-0-0-|0-0-0-0-0-0-0-0-|0-0-0-0-0-0-0-0-|

  PM-------|   -|   --------|   -|   --------|   -| 
|----------------|----------------|----------------|----------------|
|----------------|----------------|----------------|----------------|
|----------------|----------------|----------------|----------------|
|----------------|----------------|----------------|3-3-3-3-2-2-2-2-|
|0-0-0-0-0-0-0-0-|0-0-0-0-0-0-0-0-|0-0-0-0-0-0-0-0-|1-1-1-1-0-0-0-0-|
|0-0-0-0-0-0-0-0-|0-0-0-0-0-0-0-0-|0-0-0-0-0-0-0-0-|----------------|

|--------------------|--------------------|--------------------|--------------------|
|--------------------|--------------------|--------------------|--------------------|
|--------------------|--------------------|--------------------|--------------------|
|3---3---3--3--3--3--|2---2---2--2--2--2--|3---3---3--3--3--3--|7--7--7--7--7-------|
|1---1---1--1--1--1--|0---0---0--0--0--0--|1---1---1--1--1--1--|4--4--4--4--4-------|
|--------------------|--------------------|--------------------|--------------------|


CHORUS (Played exactly the same as before minus the last two bars)


Rythm
|---------------------|---------------|------------------|
|---------------------|---------------|------------------|
|---------------------|---------------|------------------|
|----7--3-----7--3----|7-------5------|3--------5--------|
|5---------5--------5-|5-------3------|1--------3--------|
|---------------------|---------------|------------------|

  PM--------------------------------|
|------------------------|------------------------|
|------------------------|------------------------|
|------------------------|------------------------|
|------------------------|2--2--2--2--2--2--2--2--|
|3--3--3--3--3--3--3--3--|0--0--0--0--4--4--4--4--|
|3--3--3--3--3--3--3--3--|------------------------|


Rythm Harmonies (played simultaneously)
Low part
|-----------------|------------------|------------------------|-------------------|
|-----------------|------------------|------------------------|-------------------|
|10------9--------|7-------9---------|10-10-10-10-10-10-10-10-|9--9--9--9---------|
|-----------------|------------------|------------------------|------------X\\\\\-|
|8-------7--------|5-------7---------|8--8--8--8--8--8--8--8--|7--7--7--7--X\\\\\-|
|-----------------|------------------|------------------------|-------------------|

High part
|-----------------|------------------|------------------------|-------------------|
|-----------------|------------------|------------------------|-------------------|
|14------12-------|10------12--------|14-14-14-14-14-14-14-14-|12-12-12-12--------|
|-----------------|------------------|------------------------|------------X\\\\\-|
|12------10-------|8-------10--------|12-12-12-12-12-12-12-12-|10-10-10-10-X\\\\\-|
|-----------------|------------------|------------------------|-------------------|


OUTRO BRIDGE


Rythm

|----------------|----------------|----------------|----------------|
|----------------|----------------|----------------|----------------|
|----------------|----------------|----------------|----------------|
|7-7-7-7-7-7-7-7-|5-5-5-5-2-2-2-2-|3-3-3-3-3-3-3-3-|5-5-5-5-7-7-7-7-|
|5-5-5-5-5-5-5-5-|3-3-3-3-0-0-0-0-|1-1-1-1-1-1-1-1-|3-3-3-3-4-4-4-4-|
|----------------|----------------|----------------|----------------|

|----------------|----------------|----------------|----------------|
|----------------|----------------|----------------|----------------|
|----------------|----------------|----------------|----------------|
|7-7-7-7-7-7-7-7-|5-5-5-5-2-2-2-2-|3-3-3-3-3-3-3-3-|5-5-5-5-7-7-7-7-|
|5-5-5-5-5-5-5-5-|3-3-3-3-0-0-0-0-|1-1-1-1-1-1-1-1-|3-3-3-3-4-4-4-4-|
|----------------|----------------|----------------|----------------|

Rythm Harmonies

Low part
|------------------------|----------------|----------------|--------------------|
|------------------------|----------------|----------------|--------------------|
|10-10-10-10-10-10-10-10-|9-9-9-9-6-6-6-6-|7-7-7-7-7-7-7-7-|9-9-9-9-12-12-12-12-|
|------------------------|----------------|----------------|--------------------|
|8--8--8--8--8--8--8--8--|7-7-7-7-4-4-4-4-|5-5-5-5-5-5-5-5-|7-7-7-7-10-10-10-10-|
|------------------------|----------------|----------------|--------------------|

|------------------------|----------------|----------------|--------------------|
|------------------------|----------------|----------------|--------------------|
|10-10-10-10-10-10-10-10-|9-9-9-9-6-6-6-6-|7-7-7-7-7-7-7-7-|9-9-9-9-12-12-12-12-|
|------------------------|----------------|----------------|--------------------|
|8--8--8--8--8--8--8--8--|7-7-7-7-4-4-4-4-|5-5-5-5-5-5-5-5-|7-7-7-7-10-10-10-10-|
|------------------------|----------------|----------------|--------------------|

High part
|------------------------|--------------------|------------------------|------------------------|
|------------------------|--------------------|------------------------|------------------------|
|14-14-14-14-14-14-14-14-|12-12-12-12-9-9-9-9-|10-10-10-10-10-10-10-10-|12-12-12-12-14-14-14-14-|
|------------------------|--------------------|------------------------|------------------------|
|12-12-12-12-12-12-12-12-|10-10-10-10-7-7-7-7-|8--8--8--8--8--8--8--8--|10-10-10-10-12-12-12-12-|
|------------------------|--------------------|------------------------|------------------------|

|------------------------|--------------------|------------------------|------------------------|
|------------------------|--------------------|------------------------|------------------------|
|14-14-14-14-14-14-14-14-|12-12-12-12-9-9-9-9-|10-10-10-10-10-10-10-10-|12-12-12-12-14-14-14-14-|
|------------------------|--------------------|------------------------|------------------------|
|12-12-12-12-12-12-12-12-|10-10-10-10-7-7-7-7-|8--8--8--8--8--8--8--8--|10-10-10-10-12-12-12-12-|
|------------------------|--------------------|------------------------|------------------------|


Lead Harmonies (last two bars)
Low part
|10----------------10----|12----------12----------|-----------|
|---11----------11----11-|---13----13----14----14-|15~--------|
|------10----10----------|------12----------14----|-----------|
|---------12-------------|------------------------|-----------|
|------------------------|------------------------|-----------|
|------------------------|------------------------|-----------|

High part
|13-10----------10-13-10-|15-12----12-15-12----12-|13~--------|
|------11----11----------|------13----------14----|-----------|
|---------10-------------|------------------------|-----------|
|------------------------|------------------------|-----------|
|------------------------|------------------------|-----------|
|------------------------|------------------------|-----------|


OUTRO


Rythm
  PM----|      -----|       -----|      -----|       -----|      -----|       -----|      -----|
|------------------------|------------------------|------------------------|------------------------|
|------------------------|------------------------|------------------------|------------------------|
|------------------------|------------------------|------------------------|------------------------|
|------------------------|------------------------|------------------------|2--2--2--2--2--2--2--2--|
|0--0--0--0--3--3--3--3--|3--3--3--3--5--5--5--5--|3--3--3--3--6--6--6--6--|0--0--0--0--4--4--4--4--|
|0--0--0--0--2--2--2--2--|3--3--3--3--5--5--5--5--|3--3--3--3--6--6--6--6--|------------------------|

  PM----|      -----|       -----|      -----|       -----|      -----|     
|------------------------|------------------------|------------------------|------------------------|
|------------------------|------------------------|------------------------|------------------------|
|------------------------|------------------------|------------------------|------------------------|
|------------------------|------------------------|------------------------|2--2--2--2--2--2--2--2--|
|0--0--0--0--3--3--3--3--|3--3--3--3--5--5--5--5--|3--3--3--3--6--6--6--6--|0--0--0--0--4--4--4--4--|
|0--0--0--0--2--2--2--2--|3--3--3--3--5--5--5--5--|3--3--3--3--6--6--6--6--|------------------------|

Rythm Harmonies (played the last four bars of the outro)
Low part
|-----------------------|---------------------------|-----------------------|-----------------------|
|-----------------------|---------------------------|-----------------------|-----------------------|
|7--7--7--7--9--9--9--9-|10--10--10--10--9--9--9--9-|7--7--7--7--4--4--4--4-|6--6--6--6--6--6--6--6-|
|-----------------------|---------------------------|-----------------------|-----------------------|
|5--5--5--5--7--7--7--7-|8---8---8---8---7--7--7--7-|5--5--5--5--2--2--2--2-|4--4--4--4--4--4--4--4-|
|-----------------------|---------------------------|-----------------------|-----------------------|

High part
|------------------------|------------------------|------------------------|------------------------|
|------------------------|------------------------|------------------------|------------------------|
|10-10-10-10-12-12-12-12-|14-14-14-14-12-12-12-12-|10-10-10-10-7--7--7--7--|9--9--9--9--9--9--9--9--|
|------------------------|------------------------|------------------------|------------------------|
|8--8--8--8--10-10-10-10-|12-12-12-12-10-10-10-10-|8--8--8--8--5--5--5--5--|7--7--7--7--7--7--7--7--|
|------------------------|------------------------|------------------------|------------------------|




|------------------|------------------|------------------|------------------|
|------------------|------------------|------------------|------------------|
|------------------|------------------|------------------|------------------|
|------------------|------------------|------------------|------------------|
|0-----------------|------------------|------------------|------------------|
|0-----------------|------------------|------------------|------------------|


THE END
Добавлено: 25.04.2016
Другие материалы по этой песне:
  • Аккорды и текст

Страница создана 25.04.2016
http://primanota.ru/misc-unsigned-bands/runristarn-rapture-chords.htm
Привет, Гость.
Предлагаем пройти революционный курс по гитаре.
Подарок от PrimaNota.Ru, забирай!