PrimaNota.ru - самый крупный в мире бесплатный архив песенных текстов, аккордов, табулатур и нот


Misc Unsigned Bands - Suite Lyrique - Prelude - таба

Регистрация Запомнить меня
Войти через:  Facebook Google Twitter Vk Yandex Mail.ru

Misc Unsigned Bands - Suite Lyrique - Prelude - таба

Печатать
Просмотров: 79
---------------------------------------------------    
Suite Lyrique-Prelude by John Rutter
---------------------------------------------------

Tabbed by: Erik Gundersen  
Email: e.gundersen77@gmail.com  


Tuning: Standard with lowest string tuned to A 
        G major 4/4 time tempo 104

e|---------5-|--0-0-0----|---------5-|--0-0-0----|---12-10-12--|
B|----0-1-5-5|-1-0-1-----|----0-1-5-5|-1-0-1-----|---10--------|
G|---2-------|--------2--|---2-------|--------2--|-------------|
D|--2--------|-----------|--2--------|-----------|-------------|
A|-0---------|-----------|-0---------|-----------|-------------|
A|-----------|-----------|-----------|-----------|-------------|

e|(12)-12-10-12-10-8-|-10------8-7-|-8-5-------|-12-10-12-----|
B|-----------10------|-7-----------|-----------|-10-----------|
G|-------------------|-------------|-9-5-------|--------------|
D|-------------------|-------------|-----------|--------------|
A|-------------------|-------------|-----------|--------------|
A|-------------------|-------------|-----------|--------------|

e|(12)-12-10-12-10-12-|-14------12-10--|-12--------|---5---------|
B|-----------10-------|-10-------------|-10--------|---5-3-5-----|
G|--------------------|-11-------------|-9---------|---------2---|
D|--------------------|----------------|-----------|-------------|
A|--------------------|----------------|-----------|-------------|
A|--------------------|----------------|-----------|-------------|

e|-5-3-5-------|-1----------|-3--1-3-------|-5-1-0-5-------|
B|-5---6-5-3-1-|-0--3-1-3---|-0----5-3-1-0-|-------3-1-0---|
G|-------------|----------0-|-0------------|-2-----------2-|
D|-7-----------|------------|--------------|---------------|
A|-------------|------------|--------------|---------------|
A|-------------|------------|--------------|---------------|

e|-7---5------|-4-0-------|---------------|-0--0---0------|
B|----------0-|-0----0-0--|-1-0-1--3-1-3--|------3--------|
G|---------2--|---1-1-2---|---------------|---------------|
D|-6----------|---------2-|------3------2-|---------------|
A|------------|-----------|---------------|---------------|
A|------------|-----------|---------------|---------------|

e|(0)-0---0-----|-----------|---0-5h7-5-4-5-7-|-8---------|
B|------3---3-1-|-3-----1-0-|---------5-------|-----------|
G|--------------|-----------|-----------------|-9---------|
D|--------------|-----------|-----------------|-----------|
A|--------------|-----------|-----------------|-----------|
A|--------------|-----------|-----------------|-----------|

e|-0---0---0---0-|-2---0---0---|(0)-5-7-8h10-8-7-8-10----|
B|-------3---3---|-------3-----|----5--------------------|
G|---------------|-------------|-------------9-----------|
D|---------------|-------------|-------------------------|
A|--------------|--------------|-------------------------|
A|--------------|--------------|-------------------------|

e|-12---12----|-17---17----|-13---10----|-15--15----|-12---13-----|
B|------------|------------|------------|-----------|---10---10---|
G|----9----9--|---14---14--|---10---9---|---12--12--|-------------|
D|------------|------------|------------|-----------|-------------|
A|------------|------------|------------|-----------|-------------|
A|------------|------------|------------|-----------|-------------|

e|-7-----11-----|-12--------|-----------|--7-5-7----|(7)--4-5-7--8-10-|
B|----4-----7---|-9---------|-----------|--5--------|---------5-------|
G|--------------|-----------|-----------|-----------|-----------------|
D|--------------|-----------|-----------|-----------|-----------------|
A|--------------|-----------|-----------|-----------|-----------------|
A|--------------|-----------|-----------|-----------|-----------------|

e|-12------13h15-|-13-10-(10)---|-10---------|----------------|
B|-10---10-------|-10-----------|---------6--|-10-----10------|
G|---------------|--------------|-7--5--7----|-7--7-5-7--9-10-|
D|---------------|--------------|------------|----------------|
A|---------------|--------------|------------|----------------|
A|---------------|--------------|------------|----------------|

e|----10--15-13----|-9--0-----1-3-|-1-5(3)-5-1(0)-1------------|
B|-----------10-11-|-10-----------|-----------------3(1)-3-----|
G|-12--------------|--------------|------------------------4-2-|
D|-----------------|--------------|----------------------------|
A|-----------------|--------------|----------------------------|
A|-----------------|--------------|----------------------------|

e|---3-1(3)--------------------|--3-1(3)-0---0-----------|
B|---------3-1-0-1-3-1-0-------|----------3---1(0)-1-----|
G|(4)--------------------2-0---|---------------------2(0)|
D|---------------------------3-|-2-----------------------|
A|-----------------------------|-------------------------|
A|-----------------------------|-------------------------|

e|---1(0)-1-------------------|----0-1-0-------------|
B|----------1(0)-0(1)0--------|---3-----3-2-3--------|
G|-2------------2-----2-0-----|-------------------2--|
D|------------------------3-2-|-0---------------3----|
A|----------------------------|---------------2------|
A|----------------------------|----------------------|

e|-----0-1-0----|-----------------|-12-10-12----|
B|----3-----3-2-|-3-1-0----0------|-------------|
G|--------------|------2-1--------|-------------|
D|--2-----------|------------3--2-|-------------|
A|-2------------|-----------------|-------------|
A|--------------|-----------------|-------------|

e|(12)-12(10)-12-10(8)-|-10-------8(7)-|-8-5---------|--12(10)-12--|
B|---------------------|---------------|-------------|-------------|
G|---------------------|---------------|-------------|-------------|
D|---------------------|---------------|-------------|-------------|
A|---------------------|---------------|-------------|-------------|
A|---------------------|---------------|-------------|-------------|

e|(12)-12(10)-10(12)-|-14-12(10)-12---|----------|-13(12)-13---------------|
B|-------------------|----------------|----------|----------13-10-13----10-|
G|-------------------|----------------|----------|-------------------10----|
D|-------------------|----------------|----------|-------------------------|
A|-------------------|----------------|----------|-------------------------|
A|-------------------|----------------|----------|-------------------------|

e|-----------|-15(13)-15-12--12------|-----------|--7-5--7-----|
B|-----------|-------------12----12--|-----------|-------------|
G|-----------|-----------------12----|-----------|--4----4-----|
D|-12--------|-----------------------|-14--------|-------------|
A|-----------|-----------------------|-----------|-------------|
A|-----------|-----------------------|-----------|-------------|

e|--8-7--8---|--10-8--10--|---12(10)-12-|---12(10)-12-|---12(10)-12----|
B|-----------|------------|-------------|-------------|-------------10-|
G|--5----5---|--7-----7---|-9-9-----(9)-|-9-9-----(9)-|-9-9-----(9)----|
D|-----------|------------|-------------|-------------|----------------|
A|-----------|------------|-------------|-------------|----------------|
A|-----------|------------|-------------|-------------|----------------|

e|-13--12-----|-8-5~~~--7-|-8-------10--|-8------10-|-9--7---5--4-|
B|--------12--|---------5-|-5-6--10-----|-----------|--------3----|
G|-10--9------|-9-5~~~----|-------------|-9---9-----|-8-----------|
D|------------|-----------|-------------|-----------|-------------|
A|------------|-----------|-------------|-----------|-------------|
A|------------|-----------|-------------|-----------|-------------|

e|-5--------------|--0-0-0--0-|----5-------|
B|-------------0--|-1-0-1-----|---5--------|
G|-5----------2---|-------2---|--5---------|
D|-----------2----|-2-----2---|-7----------|
A|-----0-2-3------|-----------|------------|
A|-0-7------------|-----------|-------0----|

() in the measure indicate a note held out
() after a number indicate note played quickly after first number
h- hammer on
Добавлено: 26.04.2016
Другие материалы по этой песне:
  • Аккорды и текст

Страница создана 26.04.2016
http://primanota.ru/misc-unsigned-bands/suite-lyrique-prelude-chords.htm
Привет, Гость.
Предлагаем пройти революционный курс по гитаре.
Подарок от PrimaNota.Ru, забирай!