PrimaNota.ru - самый крупный в мире бесплатный архив песенных текстов, аккордов, табулатур и нот


Misc Unsigned Bands - Rising Rainbow - Misokkasu - таба

Регистрация Запомнить меня
Войти через:  Facebook Google Twitter Vk Yandex Mail.ru

Misc Unsigned Bands - Rising Rainbow - Misokkasu - таба

Печатать
Просмотров: 118
-----------------------------------------------------------------------------------------
                    Rising Rainbow - Misokkasu (Shokugeki no Soma OP2 TV Size)
-----------------------------------------------------------------------------------------
Tabbed by: jeiji
E-mail: kenshinbakkabakka@ymail.com

By the way, this tab is for the lead guitar ^_^



Tuning: STANDARD



Intro:

e|--------------------------------------------|
B|--------------------------------------------|
G|----------------------7----9----7--7--6--6--|
D|--3-----3--3--3--3----7----9----7--7--6--6--|
A|--3-----3--3--3--3----5----7----5--5--4--4--|
E|--1-----1--1--1--1--------------------------|


e|-------------------------------------------------13--15--12--13-------------------13--12--------|
B|--------------------------------17-18--13------------------------15--13--13----------------15---|
G|--12b/14--------------------12-------------14-14-------------------------------14---------------|
D|---------12--12--14--15-------------------------------------------------------------------------|
A|------------------------------------------------------------------------------------------------|
E|------------------------------------------------------------------------------------------------|


Verse & Pre-chorus:

e|------------------------------------------------|
B|--13h15---------13h15-------13---------13-------|
G|-----------14-----------14---------14-------14--| x4
D|------------------------------------------------|
A|------------------------------------------------|
E|------------------------------------------------|

e-----------------------------------------------------------------------------|
B|----------------------------------------------------------------------------|
G|--6----8----------10---3--3--3--3--3--5--5--5--5--5--6--6--6--6--6--6--6--6-|
D|--6----8----10----10---3--3--3--3--3--5--5--5--5--5--6--6--6--6--6--6--6--6-|
A|--4----6----10----8----1--1--1--1--1--3--3--3--3--3--4--4--4--4--4--4--4--4-|
E|------------8---------------------------------------------------------------|

e|----------------------------------------------------|
B|----------------------------------------------------|
G|--5--5--5--5--5--5--9--9--9--9--9--9----------------|
D|--5--5--5--5--5--5--9--9--9--9--9--9----------------|
A|--3--3--3--3--3--3--7--7--7--7--7--7----------------|
E|----------------------------------------------------|


Chorus:

e|---------------------------------------------------------------------------|
B|---------------------------------------------------------------------------|
G|---------------------------------------------------------------------------|
D|--3--3--3--3--3--3--5--5--5--5--5--5--2--2--2--2--2--2--7--7--7--7--7--7---|
A|--3--3--3--3--3--3--5--5--5--5--5--5--2--2--2--2--2--2--7--7--7--7--7--7---|
E|--1--1--1--1--1--1--3--3--3--3--3--3--0--0--0--0--0--0--5--5--5--5--5--5---|

e|------------------------------------------------------------------------|
B|------------------------------------------------------------------------|
G|---7--7--7--7--7--7--9--9--9--9--9--9--7--7--7--7--7--6--6--6--6--6-----|
D|---7--7--7--7--7--7--9--9--9--9--9--9--7--7--7--7--7--6--6--6--6--6-----|
A|---5--5--5--5--5--5--7--7--7--7--7--7--5--5--5--5--5--4--4--4--4--4-----|
E|------------------------------------------------------------------------|

e|---------------------------------------------------------------------------|
B|---------------------------------------------------------------------------|
G|---------------------------------------------------------------------------|
D|--3--3--3--3--3--3--5--5--5--5--5--5--2--2--2--2--2--2--7--7--7--7--7--7---|
A|--3--3--3--3--3--3--5--5--5--5--5--5--2--2--2--2--2--2--7--7--7--7--7--7---|
E|--1--1--1--1--1--1--3--3--3--3--3--3--0--0--0--0--0--0--5--5--5--5--5--5---|

e|---------------------------------------------------------------|
B|---------------------------------------------------------------|
G|--7--7--7--7--7--7--9--9--9--9--9--9--7--7--6--6---------------|
D|--7--7--7--7--7--7--9--9--9--9--9--9--7--7--6--6---------------|
A|---------------------------------------------------------------|
E|---------------------------------------------------------------|



e|-------------------------------------------------13--15--12--13-------------------13--12--------|
B|--------------------------------17-18--13------------------------15--13--13----------------15---|
G|--12b/14--------------------12-------------14-14-------------------------------14---------------|
D|---------12--12--14--15-------------------------------------------------------------------------|
A|------------------------------------------------------------------------------------------------|
E|------------------------------------------------------------------------------------------------|




************************************

| /   slide up
| \   slide down
| h   hammer-on
| p   pull-off
| ~   vibrato
| +   harmonic
| x   Mute note
| b   Bend
| pb  Pre-bend
| br  Bend release
| pbr Pre-bend release
| brb Bend release bend

************************************
Добавлено: 25.04.2016
Другие материалы по этой песне:
  • Аккорды и текст

Страница создана 25.04.2016
http://primanota.ru/misc-unsigned-bands/rising-rainbow-misokkasu-chords.htm
Привет, Гость.
Предлагаем пройти революционный курс по гитаре.
Подарок от PrimaNota.Ru, забирай!